Oops, an error
Loading. Please wait.

Gourmet Race Theme Bass Tab

version 1
version 1

Whole song

Interactive

4,592 views 24 this week
1 commentread comment
1 2 3 4 5
excellent!
x 5
add to favorites
launch autoscroll
font size
0
reset
guitar tuner
Tab Pro tools
  • play this tab
  • loop segment
  • change instrument
  • show fretboard
  • metronome
Autoscroll
slow
fast
+/-
esc
set tempo
stop
Contributor
Tabbed by AbnormalPlace -
I did this kind of hastily, any comments or corrections would be greatly appreciated. Thank You ^^


GOURMET RACE:

Part one:

G|12--10-8------------------8-10---|
D|---------12-10-8----10-12------12|
A|---------------------------------|
E|---------------------------------|

G|---------------------------------|
D|-10------------------------------|
A|-----10--6-5-3--3-5-6-3----3-----|
E|-------------------------6---3---|

G|---------------------------------|
D|-10------------------3-----------|
A|----10--6-5-3--3-5-6---5---3---3-|
E|-------------------------6---3---|

G|--17--------------------------------------|
D|------17--13-12-10--10-12-13-10----10-----|
A|--------------------------------13----10--|
E|------------------------------------------|

G|--17----------10-12----------10------------|
D|-----17-12/13-------10-12/13----12----9/10-|
A|-----------------------------------13------|
E|-------------------------------------------|

Part two:

G|--------------------------------------------0-|
D|--------------1--0--------------------1--3----|
A|-----------3--------3--------------3----------|
E|--1--1--4--------------3--1--1--4-------------|

G|-13--12-----------12----12--------------------|
D|--------15—13-15------------------------------|
A|---------------------14-----------------------|
E|----------------------------------------------|

G|--------------------------------12------------|
D|-15--15-15-13-12--13-15-13--15------13--------|
A|----------------------------------------------|
E|----------------------------------------------|

G|--------------------------------------------0-|
D|--------------1--0--------------------1--3----|
A|-----------3--------3--------------3----------|
E|--1--1--4--------------3--1--1--4-------------|

G|-13--12----13-15-17-12------------------------|
D|--------15-------------13---------------------|
A|--------------------------15------------------|
E|----------------------------------------------|

G|----------------------------------------------|
D|12--12-12-12-15-12----------10----------------|
A|-------------------13-10-13-------------------|
E|----------------------------------------------|

Part Three:

G|---8--8-8-8-10-12-12-10-8-7--7-7-7-8-7--------|
D|-9--------------------------------------------|
A|----------------------------------------------|
E|----------------------------------------------|


G|-8-7--------------7--8-8-7------------------7-|
D|-----10--10-10-10----------10--8--8-8-8--10---|
A|----------------------------------------------|
E|----------------------------------------------|

G|------------------------------------------8-10-8---------|
D|--10-8--------------8-10-10-8-----------8--------8-------|
A|-------11--11-11-11-----------11--10-10------------------|
E|---------------------------------------------------------|

G|--8-8-8-8-10-11-11-13-11--10-10-10-10-11-10--------------|
D|---------------------------------------------------------|
A|---------------------------------------------------------|
E|---------------------------------------------------------|

G|-12----------------------12-12----------------------------|
D|----15--13--13-13-13--15--------15-13--12--12-12-12-13-12-|
A|----------------------------------------------------------|
E|----------------------------------------------------------|


G|---------------------------------------------------------|
D|-13-12--------------12-13-13-12--------------------12----|
A|-------15--15-15-15-------------15-13--13-13-13-15-------|
E|---------------------------------------------------------|

G|------------------------------------12--12-12-12-15-12-12-|
D|-------------------------------13-15----------------------|
A|15-13--------------13-15-15-15----------------------------|
E|------16--16-16-16----------------------------------------|

G|-----------10-12----10-12---10-12-17-16------------------|
D|-15-13--12-------12-------12-----------------------------|
A|---------------------------------------------------------|
E|---------------------------------------------------------|
comments
print report bad tab
1 comment total.
0 reply
XxThreeCheersxX wrote on February 4 2016, 03:50 pm

great job, i'm not playing along with the song but it sounds perfect from what i hear.

I want to post or [tab]
guest
You may want to rate the tab now too:
select rating
Please do not post tabs as comments. Select "correction" instead!