Oops, an error
Loading. Please wait.

Grand Theft Auto The Ballad Of Gay Tony - Pause Menu bass

433 views 6 this week
no commentswrite comment
1 2 3 4 5
3 more votes to show rating
add to favorites
×
Save as Personal and add changes to this tab that will be seen only by you. Learn more ›
×
You can save this tab as Personal to edit and correct it or add notes. All changes will be seen only by you. Learn more »
launch autoscroll
font size
0
reset
guitar tuner
edit
Autoscroll
slow
fast
+/-
esc
set tempo
stop
Author
Difficulty
-------------------------------------------------------------------------------
  Grand Theft Auto The Ballad of Gay Tony - Pause Menu - Misc Computer Games
-------------------------------------------------------------------------------
Tabbed by: ASAPROACH

Tuning: Standard

99% sure this is played on synth, but it's definitely meant to mimic a bass.  Repeats throughout the song
and fades in and out seemingly random.  Sometimes it will come in on variation 1 or 2, but mostly 1.  Still
fun to play.

Var. 1
G|---------------------------------------------------------------------------|
D|6-8-66---6-8-66--686---8-10-88---8-10-88--888------------------------------|
A|---------------------------------------------------------------------------|
E|---------------------------------------------------------------------------|

Var. 2
G|-------------------------------------------8-------------------------------|
D|6-8-66---6-8-66--686---8-10-88---8-10-88-----10-8--------------------------|
A|--------------------------------------------------10-8---------------------|
E|-------------------------------------------------------10------------------|





| /  slide up
| \  slide down
| h  hammer-on
| p  pull-off
| ~  vibrato
| +  harmonic
| x  Mute note
===============================================================================

            
            
Suggest correction
Creating personal tab
Creating personal tab
You can edit any tab online and save it as your Personal.

You can edit, replace or remove any tab part or add personal notes – all changes will be seen only by you.

Personal tabs can be accessed anytime from any device, even offline.
Learn more »
Give kudos to tab author, rate the tab!
1 2 3 4 5
comments
print report bad tab
guest
You may want to rate the tab now too:
select rating
Wanna post a correction for this tab? Suggest correction