Oops, an error
Loading. Please wait.

Green Hill Zone Theme Bass Tab

version 1
version 1

Whole song

Interactive

4,008 views 1 this week
no commentswrite comment
1 2 3 4 5
please rate
add to favorites
launch autoscroll
font size
0
reset
guitar tuner
Tab Pro tools
  • play this tab
  • loop segment
  • change instrument
  • show fretboard
  • metronome
×
Best way to learn
"Green Hill Zone Theme"
Autoscroll
slow
fast
+/-
esc
set tempo
stop
Contributor
-------------------------------------------------------------------------------
			     Green Hill Zone
-------------------------------------------------------------------------------

Tabbed By : Andy
e-mail: hit_hatcat1@mac.com

Tuning: Standard 
This is A tab that I found but was off in many places. I feel I should write the real version.

|---------2------------3-----------4----|
|---------------------------------------|
|-----0-------0---1----------2----------|
|---------------------------------------|

|---------------------------------------|
|---------------------------------------|
|--3----3----3----3----3----3----3----3-|
|---------------------------------------|

|---------------------------------------|
|---------------------------------------|
|--3----3----3----3---3--3--3--3---3--3-|
|---------------------------------------|

|-------------------|
|-------------------|
|-3--3--3--3--3--3--|
|-------------------|

|-------------------------|-------------------------|
|-------------------------|-------------------------|
|-3--3--3--3--0--0--2--2--|-3--3--3--3--3--3--3--3--|
|-------------------------|-------------------------|

|-------------------------|-------------------------|
|-------------------------|-------------------------|
|-3--3--3--3--3--3--3--3--|-3--3--3--3--3--3--3--3--|
|-------------------------|-------------------------|

|-------------------------|-----------------------------|
|-------------------------|-----------------------------|
|-3--3--3--3--3--3--5--7--|-8--8--8--8--8---8----8---8--|
|-------------------------|-----------------------------|

|---------------------------|-----------------------------------|
|---------------------------|-----------------------------------|
|-7--7--7--7---7------------|-----------------------------------|
|------------------8-10--12-|-13--13--13--13--13--13---13---13--|

|-------------------------------|-----------------------------------|
|-------------------------------|-----------------------------------|
|-------------------------------|-----------------------------------|
|-12--12--12--12--12---8-10--12-|-13--13--13--13--13--13---13---13--|

|-----------------------------------|-----------------------------------|
|-----------------------------------|-----------------------------------|
|-----------------------------------|-----------------------------------|
|-12--12--12--12--12---12--12---12--|-10--10--10--10--10--10---10---10--|

|------------------------------|-----------------------------------|
|------------------------------|-----------------------------------|
|------------------------------|-----------------------------------|
|-8--8---8--8---8----8--10--12-|-13--13--13--13--13--13---13---13--|

|-------------------------------|-----------------------------------|
|-------------------------------|-----------------------------------|
|-------------------------------|-----------------------------------|
|-12--12--12--12--12---8-10--12-|-13--13--13--13--13--13---13---13--|

|-------------------------------|-----------------------------------|
|-------------------------------|-----------------------------------|
|-------------------------------|-----------------------------------|
|-12--12--12--12--12---8-10--12-|-13--13--13--13--13--13---13---13--|

|-----------------------------------|-----------------------------------|
|-----------------------------------|-----------------------------------|
|-----------------------------------|-----------------------------------|
|-12--12--12--12--12---12--12---12--|-10--10--10--10--10--10---10---10--|

|------------------------------|---------------|--------------------|
|------------------------------|-8---7-(7)--5--|-(5)-3-(3)--2--2----|
|------------------------------|---------------|--------------------|
|-8--8---8--8---8----8---8--8--|---------------|--------------------|

|----------------|----------------------|---------------|----------------------|
|----------------|------------------7---|-6---5-(5)--3--|-(3)--1--(1)---0------|
|--0---2-(2)--3--|-(3)-5-(5)---7--------|---------------|------------------3---|
|----------------|----------------------|---------------|----------------------|

|--------------------|------------------------|------------------------------|
|--------------------|---5--------------------|------------------------------|
|-------5-(5)--------|---------0--2-3--5--7-8-|-8--8--8--8--8---8----8---8---|
|-3-------------3----|-------3----------------|------------------------------|

|---------------------------|-----------------------------------|
|---------------------------|-----------------------------------|
|-7--7--7--7---7------------|-----------------------------------|
|------------------8-10--12-|-13--13--13--13--13--13---13---13--|

|-------------------------------|-----------------------------------|
|-------------------------------|-----------------------------------|
|-------------------------------|-----------------------------------|
|-12--12--12--12--12---8-10--12-|-13--13--13--13--13--13---13---13--|

|-----------------------------------|-----------------------------------|
|-----------------------------------|-----------------------------------|
|-----------------------------------|-----------------------------------|
|-12--12--12--12--12---12--12---12--|-10--10--10--10--10--10---10---10--|

|------------------------------|-----------------------------------|
|------------------------------|-----------------------------------|
|------------------------------|-----------------------------------|
|-8--8---8--8---8----8--10--12-|-13--13--13--13--13--13---13---13--|

|-------------------------------|-----------------------------------|
|-------------------------------|-----------------------------------|
|-------------------------------|-----------------------------------|
|-12--12--12--12--12---8-10--12-|-13--13--13--13--13--13---13---13--|

|-------------------------------|-----------------------------------|
|-------------------------------|-----------------------------------|
|-------------------------------|-----------------------------------|
|-12--12--12--12--12---8-10--12-|-13--13--13--13--13--13---13---13--|

|-----------------------------------|-----------------------------------|
|-----------------------------------|-----------------------------------|
|-----------------------------------|-----------------------------------|
|-12--12--12--12--12---12--12---12--|-10--10--10--10--10--10---10---10--|

|------------------------------|---------------|--------------------|
|------------------------------|-8---7-(7)--5--|-(5)-3-(3)--2--2----|
|------------------------------|---------------|--------------------|
|-8--8---8--8---8----8---8--8--|---------------|--------------------|

|----------------|----------------------|---------------|----------------------|
|----------------|------------------7---|-6---5-(5)--3--|-(3)--1--(1)---0------|
|--0---2-(2)--3--|-(3)-5-(5)---7--------|---------------|------------------3---|
|----------------|----------------------|---------------|----------------------|

|--------------------|------------------------*|
|--------------------|---5--------------------*|
|-------5-(5)--------|---------0--2-3--5--7-8-*|
|-3-------------3----|-------3----------------*|

I tried to organize this well
It's just hard because of it's length
comments
We did not receive enough feedback on this tab! Please rate:
print report bad tab
1 2 3 4 5
I want to post or [tab]
guest
You may want to rate the tab now too:
select rating
Please do not post tabs as comments. Select "correction" instead!