Oops, an error
Loading. Please wait.

Guitar Hero 3 - Guitar Battle Vs Slash tab

version 2
version 2

Whole song

Interactive

13,394 views 21 this week
3 commentsread comments
1 2 3 4 5
x 5
add to favorites
×
Save as Personal and add changes to this tab that will be seen only by you. Learn more ›
×
You can save this tab as Personal to edit and correct it or add notes. All changes will be seen only by you. Learn more »
launch autoscroll
font size
0
reset
how to read this tab
guitar tuner
edit
Autoscroll
slow
fast
+/-
esc
set tempo
stop
-----------------------------------------------------------------------------------
Slash Guitar Battle - Written by Slash For Guitar Hero III: Legends Of Rock In 2007
-----------------------------------------------------------------------------------
Tabbed by: Charlie
Email: Some-kind_of-monster@hotmail.co.uk or CLJHeath@aol.com 

Tuning: Standard Low to High EADGBe

Note: This is not 100% right I think I've made a fair few mistakes,
but I can barely hear one of the guitars on the version of the song I have.
Will be hopefully tabbing the rest soon.

  Guitar One - Slash 
e|---------------------------------------------------------------------------|
B|------5p0------------------------------------------------------------------|
G|----------7b9=--6h7p6p4-6p4p2----------------------------------------------|
D|--7b9-------------------------6-7p5----------------------------------------|
A|------------------------------------7p5h7~~~~~-----------------------------|
E|---------------------------------------------------------------------------|

 Guitar Two - You  
e|--------12---------15------------12p10-------------------------------------|
B|-----------x-15b17----15b17-(17)-------12p11p10-----------15b17===========-|
G|--12h14-----------------------------------------12-------------------------|
D|---------------------------------------------------14-12-------------------|
A|---------------------------------------------------------------------------|
E|---------------------------------------------------------------------------|

  Slash                                  (Slow Bend from 3 to 5)
e|----5-----7-----8-----9-----8-----7-----5====\3==b=====5r3-----------------|
B|---------------------------------------------------------------------------|
G|-/6----/7----/8----/9----/8----/7----/6------------------------------------|
D|---------------------------------------------------------------------------|
A|---------------------------------------------------------------------------|
E|---------------------------------------------------------------------------|

  You
e|--15b18r-12----12----------------------------------------------------------|
B|------------15----12-15b19p12----15-12-15p12-------------------------------|
G|------------------------------14-------------15-16-16p15p12-14b16===-------|
D|---------------------------------------------------------------------------|
A|---------------------------------------------------------------------------|
E|---------------------------------------------------------------------------|

  Slash
e|---------------------------------------------------------------------------|
B|--14-----------------------------------------------------------------------|
G|--15b18--14h16--12~~-------------------------------------------------------|
D|---------------------------------------------------------------------------|
A|---------------------------------------------------------------------------|
E|---------------------------------------------------------------------------|

  You
e|---------------------------------------------------------------------------|
B|-15b17-15pb17r15p12----------------12b13-----------------------------------|
G|--------------------15p14p12----12-12b13-----------------------------------|
D|-----------------------------------------14p12h14~~~~{feedback}------------|
A|-----------------------------14--------------------------------------------|
E|---------------------------------------------------------------------------|


(Band Enter)
 Rhythm For Solos
e|---------------------------------------------------------------------------|
B|---------------------------------------------------------------------------|
G|---------------------------------------------------------------------------|
D|---------------------------------------------------------------------------| 
A|------------------0-2-----------------0-2-----------------0-2--------------|  
E|--0-0-[3]~--0-0-0------0-0-[3]~-0-0-0------0-0-[3]~-0-0-0------------------|  
                                                                               
e|----------------*----------------------------------------------------------|  
B|----------------*----------------------------------------------------------|  
G|----------------*----------------------------------------------------------|  
D|----------------*---------5--------7-9------5--------7-9-------------------|
A|----------------*0-2--0-0-3--0-0-0-5-7--0-0-3--0-0-0-5-7-------------------|
E|--0-0-[3]~-0-0-0*----------------------------------------------------------|
                             

e|---------------------------------------------------------------------------|
B|---------------------------------------------------------------------------|
G|---------------------------------------------------------------------------|
D|---------------------------------------------------------------------------| 
A|------------------0-2------------------0-2------------------0-2------------|  
E|--0-0-[3]~--0-0-0------0-0-[3]~--0-0-0------0-0-[3]~--0-0-0----------------|

e|---------------------------------------------------------------------------|
B|---------------------------------------------------------------------------|
G|---------------------------------------------------------------------------|
D|------7----------7-9------5----------7-9-----------------------------------| 
A|--2-2-5--2-2-2-2-5-7--0-0-3--0-0-0-0-5-7------5----------7-9---------------|  
E|------------------------------------------0-0-3--0-0-0-0-5-7---------------|  
 
First & Third Ending     Second Ending  Fourth time, at starred section 
e|--------------------| |------------| |------------|
B|--------------------| |------------| |------------|
G|--------------------| |------------| |------------|
D|--------------------| |------------| |------------|
A|-----5----------7-9-| |--9-9-9==/\-| |--2-3-4-5-6-|
E|-0-0-3--0-0-0-0-5-7-| |--7-7-7==/\-| |--0-1-2-3-4-|

Final Ending of Rhythm
e|----------------------------|
B|----------------------------|
G|----------------------------|
D|----------------------------|
A|-2-2-6-6-7-7-8-8-9--5-2--2--|
E|-0-0-4-4-5-5-6-6-7--3-0--0--|

Solo With Rhythm Section Above
  Slash
e|---------------------------------------------------------------------------|
B|---------------------------------------------------------------------------|
G|--7h9-9-9-12p9-9p7h9--9p7p6------------------------------------------------|
D|----------------------------9-9-9-9p8p7-7p5h7p5----------------------------|
A|------------------------------------------------7p5------------------------|
E|---------------------------------------------------------------------------|
  You
e|---------------------------------------------------------------------------|
B|-----------5-----5-----5-----5-----5---------------------------------------|
G|-----9-7b9---7b9---7b9---7b9---7b9----7-6-7p6p4-4h6p4----------------------|
D|-7b9--------------------------------------------------7h9p7-11p9p8-7~~-----|
A|---------------------------------------------------------------------------|
E|---------------------------------------------------------------------------|

 Slash
e|---------------------------------------------------------------------------|
B|---------------------------------------------------------------------------|
G|---------------------------------------------------------------------------|
D|--9b11-9-------------------------------------------------------------------|
A|---------10p9p7----10p9p7--------------------------------------------------|
E|----------------10--------10-10h12~~---------------------------------------|

  You
e|---------------------------------------------------------------------------|
B|-----5----8-7p5---8-7p5---8-7p5---8-7p5---8-7p5---8-8b10r8~~---------------|
G|--/6---6--------6-------6-------6-------6-------6--------------------------|
D|---------------------------------------------------------------------------|
A|---------------------------------------------------------------------------|
E|---------------------------------------------------------------------------|

  Slash
e|---------------------------------------------------------------------------|
B|---------------------------------------------------------------------------|
G|---------------------------------------------------------------------------|
D|--/7-9-9--12~-9-8-9-8h9p8p7-7~---------------------------------------------|
A|---------------------------------------------------------------------------|
E|---------------------------------------------------------------------------|




| /  Slide up
| \  Slide down
| h  Hammer-on
| p  Pull-off
| ~  Vibrato
|( ) Natural Harmonic
| x  Mute note
| =  Sustained Note
|[ ] Pinch Harmonic
| b  Bend
===============================================================================

            
            
Suggest correction
Creating personal tab
Creating personal tab
You can edit any tab online and save it as your Personal.

You can edit, replace or remove any tab part or add personal notes – all changes will be seen only by you.

Personal tabs can be accessed anytime from any device, even offline.
Learn more »
comments
print report bad tab
3 comments total.
+1 reply
death eater 97 Jul 07, 2008 08:23 PM

dude me and my friend learnt this and it sounds so close dude! one or two srewups here and there but they easily fixed

+1 reply
death eater 97 Jul 07, 2008 08:26 PM

o and after the first line of slash, the last note is played, then muted with a slap back effect. nothing major.

+1 reply
prophetsfan 20 Jul 21, 2008 12:48 PM

agreed with death eater. Although im sure this is only like a 3rd of the song - were deff talking aboutt the one on guitar hero here where the band exits again and theres another 2 mins of soloing...


still, what you got is good, 4*
best tab on here so far, excluding the guitar pro which i cant look at because my software sucks.

guest
You may want to rate the tab now too:
select rating
Wanna post a correction for this tab? Suggest correction