Oops, an error
Loading. Please wait.

Halo 2 - In Amber Clad Bass

154 views 1 this week
no commentswrite comment
1 2 3 4 5
1 last vote to show rating
add to favorites
launch autoscroll
font size
0
reset
guitar tuner
Autoscroll
slow
fast
+/-
esc
set tempo
stop
Author
Difficulty
novice
About this tab version
This features all of the bass guitar parts in this song from the game, "Halo 2.". Was this info helpful? Yes No
Halo 2: In Amber Clad - Bass Guitar Tab

[Intro]
[Bass comes in at 0:14]
[x2]
G|------------|------------|------------|
D|-4--6--6--6-|----4--6--6-|------4--6--|
A|------------|-6----------|-6----------|
E|------------|------------|------------|

[x2]
G|------------|------------|------------|
D|-2--4--4--4-|----2--4--4-|------2--4--|
A|------------|-4----------|-4----------|
E|------------|------------|------------|

[Pre-Verse (x2)]
G|----------------|----------------|--------|
D|----------------|----------------|--------|
A|-2--4--4--2--4--|-2--4---2--4----|-2----4-|
E|----------------|--------------4-|--------|

[Verse (x2)]
[x2]
G|------------|------------|------------|
D|-4--6--6--6-|----4--6--6-|------4--6--|
A|------------|-6----------|-6----------|
E|------------|------------|------------|

[x2]
G|------------|------------|------------|
D|-2--4--4--4-|----2--4--4-|------2--4--|
A|------------|-4----------|-4----------|
E|------------|------------|------------|

[Chorus (x2)]
G|----------------|----------------|--------|
D|----------------|----------------|--------|
A|-4--4--4--4--4--|-4--4---4--4--4-|-4----4-|
E|----------------|----------------|--------|

G|----------------|----------------|--------|
D|-2--2--2--2--2--|--2--2--2~------|-1~-----|
A|----------------|----------------|--------|
E|----------------|----------------|--------|

[Outro]
[x4]
G|----------------|----------------|--------|
D|----------------|----------------|--------|
A|-2--4--4--2--4--|-2--4---2--4----|-2----4-|
E|----------------|--------------4-|--------|

[x1]
G|----------------|-------|
D|----------------|-------|
A|-2--4--4--2--4--|-2--4--|
E|----------------|-------|

___________________________

Key:

~  = Let ring
___________________________

If there's any confusion, questions, or advice on how to 
improve it, please post a comment. Have fun playing, and 
please rate! -Rarrlow
Suggest correction
Give kudos to tab author, rate the tab!
1 2 3 4 5
comments
print report bad tab
guest
You may want to rate the tab now too:
select rating
Wanna post a correction for this tab? Suggest correction