Oops, an error
Loading. Please wait.

Halo 3 - Never Forget bass

115 views 9 this week
2 commentsread comments
1 2 3 4 5
2 more votes to show rating
add to favorites
×
Save as Personal and add changes to this tab that will be seen only by you. Learn more ›
×
You can save this tab as Personal to edit and correct it or add notes. All changes will be seen only by you. Learn more »
launch autoscroll
font size
0
reset
guitar tuner
edit
Autoscroll
slow
fast
+/-
esc
set tempo
stop
Author
Difficulty
About this tab version
Includes time signature and bar lines. Was this info helpful? Yes No
Halo 3 - Never Forget - Bass Guitar Tab

Time Signature: 3/4

[Part I]
[x2]
G|----------|----------|----------|----------|
D|----------|----------|----------|----------|
A|----------|-3--------|-5~-------|----------|
E|-3--------|----------|----------|----------|

G|----------|----------|----------|----------|
D|-2--------|----------|----------|----------|
A|----------|-3--------|-5--------|----------|
E|----------|----------|----------|-3----2---|

G|----------|----------|----------|----------|
D|----------|----------|----------|----------|
A|-3--------|-5--------|-0~-------|----------|
E|----------|----------|----------|----------|

[x2]
G|----------|----------|----------|----------|
D|----------|----------|----------|----------|
A|----------|----------|----------|----------|
E|-7~-------|----------|-5~-------|----------|

[Part II]
G|----------|----------|----------|----------|
D|----------|----------|----------|----------|
A|----------|----------|----------|----------|
E|-4--------|-2--------|-0--------|-0--------|

G|----------|----------|----------|----------|
D|----------|----------|----------|----------|
A|----------|----------|----------|----------|
E|-0--------|-4--------|-6--------|-5--------|

G|----------|----------|----------|----------|
D|----------|----------|-4--------|----------|
A|-5--------|-7--------|----------|-4--------|
E|----------|----------|----------|----------|

G|----------|----------|----------|----------|
D|----------|----------|----------|----------|
A|----------|----------|----------|-1--------|
E|-2--------|-2--------|-2--------|----------|

G|----------|----------|----------|----------|
D|----------|----------|-2--------|----------|
A|-3--------|-2--------|----------|-4--------|
E|----------|----------|----------|----------|

G|----------|----------|----------|----------|
D|----------|----------|-2--------|----------|
A|----------|----------|----------|-4--------|
E|-1--------|-1--------|----------|----------|

G|----------|----------|
D|----------|----------|
A|----------|----------|
E|-1--------|-1--------|

[Part III]
G|----------|----------|----------|----------|
D|----------|----------|-1--------|-1--------|
A|----------|-4--------|----------|----------|
E|-1--------|----------|----------|----------|

G|----------|----------|----------|----------|----------|
D|----------|----------|-1--------|-1~-------|----------|
A|----------|-4--------|----------|----------|----------|
E|-1--------|----------|----------|----------|----------|

[x2]
G|----------|----------|----------|----------|
D|----------|----------|----------|----------|
A|----------|-4--------|-6--------|-6--------|
E|-4--------|----------|----------|----------|

G|----------|----------|----------|----------|
D|-3--------|----------|----------|----------|
A|----------|-4--------|-6--------|----------|
E|----------|----------|----------|-4----3---|

G|----------|----------|----------|----------|
D|----------|----------|----------|----------|
A|-4--------|-6--------|----------|----------|
E|----------|----------|-6~-------|----------|

[x2]
G|----------|----------|----------|----------|
D|----------|----------|----------|----------|
A|----------|----------|----------|----------|
E|-8~-------|----------|-6~-------|----------|
[End]

___________________________

Key:

~  = Let ring
___________________________

If there's any confusion, questions, or advice on how to 
improve it, please post a comment. Have fun playing, and 
please rate! -Rarrlow

            
            
Suggest correction
Creating personal tab
Creating personal tab
You can edit any tab online and save it as your Personal.

You can edit, replace or remove any tab part or add personal notes – all changes will be seen only by you.

Personal tabs can be accessed anytime from any device, even offline.
Learn more »
Give kudos to tab author, rate the tab!
1 2 3 4 5
comments
print report bad tab
2 comments total.
+1 reply
ghostbustersbg 98 Aug 02, 2017 05:10 PM

Duude! A Halo 3 tab? That is my favorite game. Kudos to you man.

guest
You may want to rate the tab now too:
select rating
Wanna post a correction for this tab? Suggest correction