Oops, an error
Loading. Please wait.

Halo 3 Theme tab

version 1
version 1

Whole song

Interactive

56,579 views 39 this week
13 commentsread comments
1 2 3 4 5
x 22
add to favorites
×
Save as Personal and add changes to this tab that will be seen only by you. Learn more ›
×
You can save this tab as Personal to edit and correct it or add notes. All changes will be seen only by you. Learn more »
launch autoscroll
font size
0
reset
how to read this tab
guitar tuner
edit
Autoscroll
slow
fast
+/-
esc
set tempo
stop
Author
[Main Theme]
e|------------------------------------------------------------------------------------|
B|------------------------------------------------------------------------------------|
G|------------------------------------------------------------------------------------|
D|----------------0-------------0-2-3--2----2--0---------0----------------------------|
A|---0---2-3-2----3-2 ----0-------------3--------0-2-3-----2---0-3-2-0-2-----------0--|
E|------------------------3--------------------------------------------------------3--|

(normally in the game there is a pause for a drum solo briefly, then)
e|-------------------------------------------------------------------------|
B|-------------------------------------------------------------------------|
G|-------------------------------------------------------------------------|
D|-------7----------9-------------------10-------------12--12----12-11-10--|
A|--000-------000---------000------------------000-------------------------|
E|-------------------------------------------------------------------------|

(x2)
e|-------------------------------------------------------------------|
B|-------------------------------------------------------------------|
G|-------------------------------------------------------------------|
D|-----------7-7-------7-7--------10-10-------------12-12--12-11-10--|
A|-----000-------000-------000-------------000-----------------------|
E|-------------------------------------------------------------------|

(x2)
e|------------------------------------------------------------|
B|------------------------------------------------------------|
G|------------------------------------------------------------|
D|------7-7---------10-10--------12-12-------10-10-------7-7--|
A|-000------000------------000----------000---------000-------|
E|------------------------------------------------------------|
Suggest correction
Creating personal tab
Creating personal tab
You can edit any tab online and save it as your Personal.

You can edit, replace or remove any tab part or add personal notes – all changes will be seen only by you.

Personal tabs can be accessed anytime from any device, even offline.
Learn more »
comments
print report bad tab
13 comments total. Showing first comments.
0 reply
GCS 10 Sep 03, 2008 09:12 AM

is this E standard??

-2 reply
Flying_Penguins 10 Oct 12, 2008 03:52 PM

dude, this is halo 2 not 3

0 reply
ston3r-monk3y 10 Nov 03, 2008 01:47 PM

actually its halo 3 im a game freak

guest
You may want to rate the tab now too:
select rating
Wanna post a correction for this tab? Suggest correction