Oops, an error
Loading. Please wait.

Halo 3 Unforgotten Tab

43 views 6 this week
no commentswrite comment
1 2 3 4 5
1 last vote to show rating
add to favorites
launch autoscroll
font size
0
reset
how to read this tab
guitar tuner
Autoscroll
slow
fast
+/-
esc
set tempo
stop
Help us to improve Ultimate-Guitar.com Take our survey!
×
Author
Difficulty
intermediate
About this tab version
This is a guitar interpretation of the piano score featured in Halo 2 and Halo 3. Standard tuning, no capo needed. This tab is as neat and well thought out as one can make it. Was this info helpful? Yes No
Unforgotten [Formerly known as Never Forget in Halo 2]


e|------------------|-----------------|---------|---------------------------|
b|------------------|---------0-------|---------|--0----2----3--------------|
g|----------2-------|---------------2-|---------|-------------------2-------|
D|-0--------------2-|--0--------------|--2------|---------------------------|
A|----------------0-|-----------------|--0------|--2------------------------|
E|-2--------3-------|--2------3-------|---------|------------3--------------|


e|-0----------------|-----------------|---------|------|--------------------|
b|--------3------2--|--0--------------|---0-----|------|-----0--------------|
g|------------------|----------2------|---------|------|--------------------|
D|--------0---------|-----------------|---2-----|--4---|--------------------|
A|-0----------------|----------0------|---------|--4h5-|-----7--------------|
E|------------------|--3--------------|---0-----|------|-----0--------------|

e|----------|-------|-----------------|----------------|--------------------|
b|----------|--0----|---------3-------|--------0-------|--------------------|
g|----------|-------|-----------------|----------------|--------2-----------|
D|-4--------|-------|------4----------|-----0----------|-----2--------------|
A|-4h5------|-------|--2--------------|----------------|--0-----------------|
E|----------|--0----|-----------------|--3-------------|--------------------|

e|---------------0--|-----------------|----------------|--------------------|
b|---------0-2------|--3------3---3---|--2-----0-----0-|--------------------|
g|------2-----------|-----------------|----------------|--2----2------------|
D|----2-------------|-----4---4-------|-----0--0---0---|-----2--------------|
A|--0---------------|--2--------------|----------------|--0-----------------|
E|------------------|-----------------|--3-------------|--------------------|

e|------------------|-----------------|----------------|---------------0----|---------------------|
b|--------3---------|--------0--------|----------------|---------0--2-------|--3------2--3--2--3--|
g|------------------|--2-----2--------|--------2-------|--------------------|---------------------|
D|-----4------------|-----0-----------|--2--2-------2--|------2-------------|------4--4-----------|
A|--2---------------|-----------------|--0-------------|--0-----------------|--2------------------|
E|------------------|--3--------------|----------------|--------------------|---------------------|


e|------------------|-----------------|----------------|--------------------|---------------------|
b|--2--------0----0-|--------------0--|--2---------0-2-|--------3--2--2-----|--3-----0------------|
g|--------2----2--0-|--2-----2--------|---------2------|--4-----------4-----|----------2--0-------|
D|-----0--0---------|-----2-----------|------2---------|-----4-----------4--|-----0----------0----|
A|------------------|--0--------------|----------------|--2-----------------|---------------------|
E|--3---------------|-----------------|----------------|--------------------|--3------------------|

e|--0----------0--0-|-----------------|----------------|--------------0--5--|---------------------|
b|----------0--2----|--3--------3--2--|--0-----------0-|--------2--3--------|--0--------0---------|
g|-------2----------|--------2-------2|--------0--2----|--2-----2-----------|---------------------|
D|----2-------------|-----4-----------|-----0----------|-----2--------------|--------2------------|
A|--0---------------|--5--------------|----------------|--0-----------------|-----2---------------|
E|------------------|-----------------|--3-------------|--------------------|--0------------------|

e|------------------|-----------------|----------------|--------------------|---------------------|
b|------------------|-----------------|----------------|--0--------0--------|---------------------|
g|------------------|--------4--------|--------4-------|--------------------|---------------------|
D|--------2---------|--4--4-----------|--4--4----------|--------2-----------|--------2------------|
A|-----2------------|-----------------|--5-------------|-----2--------------|-----2---------------|
E|--0---------------|--7--------------|--7-------------|--0-----------------|--0------------------|

e|------------------|-----------------|----------------|-------7------------|
b|------------------|-----------------|--0-------------|--------------------|
g|--------4---------|--------4--------|----------------|--------------------|
D|--4--4------------|--4--4-----------|--------2-------|----0---------------|
A|------------------|--5--------------|-----2----------|--------------------|
E|--7---------------|--7--------------|--0-------------|--7-----------------|

**********************************

|    h - Hammer on

**********************************
-------------------------------------------------------------------------------------
Link to the song here
https://www.youtube.com/watch?v=B-X5Hrc0dRU


Suggest correction
Give kudos to tab author, rate the tab!
1 2 3 4 5
comments
print report bad tab
guest
You may want to rate the tab now too:
select rating
Wanna post a correction for this tab? Suggest correction