Oops, an error
Loading. Please wait.

Halo Theme Tab

version 3
version 3

Whole song

Interactive

112,533 views 192 this week
3 commentsread comments
1 2 3 4 5
x 17
add to favorites
×
Save as Personal and add changes to this tab that will be seen only by you. Learn more ›
×
You can save this tab as Personal to edit and correct it or add notes. All changes will be seen only by you. Learn more »
save as personal
new!
launch autoscroll
font size
0
reset
how to read this tab
guitar tuner
Autoscroll
slow
fast
+/-
esc
set tempo
stop
Author
All the other tabs are either incomplete or don't strike me as very appealing. My
previous one is similar to this, but this one has a few extra riffs. Okay guys, I
spend half my time whilst playing guitar working on the halo song, and I add a new
riff and other improvements every month.
Here we go now.

e-----------------------------------------|
B-----------------------------------------|
G-----------2-----------------------------| Play this once, Intro.
D--2-4-5-4-----5--4--------------------2--|
A-----------------------------------------|
E-----------------------------------------|

e------------------------------------------------------------------|
B----2--3--2--2-0--------------------------------------------------|
G--4--------2-------------0--2------0------------------------------|
D-------------------0---2------4--2---4--2-4-------7-----9---------|
A-----------------2--------------------------5---------------------|
E------------------------------------------------------------------|

e--------------------------------------------------------------|
B--------------------------------------------------------------|
G--------------------------------------------------------------|
D--------------------------------------------------------------|
A----7---9---10---12---12-10-9---------------------------------|(3x times)
E-000-000-000--000--000----------------------------------------|

e----------------------------------------------------------------|
B----------------------------------------------------------------|
G----------------------------------------------------------------|
D----------------------------------------------------------------|
A--7-7-7--9-9-9-10-10-10--12-12-10-9-----------------------------|(x2 times)
E----------------------------------------------------------------|

e------------------------------------------------------|
B------------------------------------12----------------|
G--9--11--12--14-12-11-12-11-12----9-------------------|
D-------------------------------12---------------------|
A------------------------------------------------------|
E------------------------------------------------------|

e------------------------------------------------------|
B------------------------------------------------------|
G-----4----6----7----9----9-9--5--4--------------------|
D-----2----4----5----7----7-7--7--7--------------------|(x3 times)
A------------------------------------------------------|
E-000---000--000--000--000-----------------------------|

e------------------------------------------------------|
B------------------------------------------------------|
G--4-4-4---6-6-6---7-7-7---9--9--7-6-------------------|
D--2-2-2---4-4-4---5-5-5---7--7--5-4-------------------|
A------------------------------------------------------|(x2 times)
E------------------------------------------------------|


e------------------------------------------------------------------|
B----2--3--2--2-0--------------------------------------------------|
G--4--------2-------------0--2------0------------------------------|
D-------------------0---2------4--2---4--2-4-------------2---------|
A-----------------2--------------------------5---------------------|
E------------------------------------------------------------------|

Well there you go, as far as it goes, this is the most accurate tab I have found so
far not counting official ones that are either bought or I have not located free on
the web. Any ideas? Suggestions? All feedback is widely appreciated, thank you for
your time. Enjoy.
P.S. I preformed this at a musical evening, half the kids didn't know the game and
were impressed. jay_aries@hotmail.com or dark_thief567@yahoo.com.au Church
Suggest correction
comments
print report bad tab
3 comments total.
0 reply
PerfectH 10 May 09, 2007 09:56 AM

Your intro is incomplete. Nice tab otherwise

0 reply
CallMeColeman 10 Apr 06, 2014 11:23 AM

what song on the soundtrack are you basing this on?

0 reply
agus_san_albert 37 May 06, 2016 10:37 AM

The best part of the song is not in there dude, if you complete it i will give you 5 star but, not if is wrong

guest
You may want to rate the tab now too:
select rating
Wanna post a correction for this tab? Suggest correction