Oops, an error
Loading. Please wait.

Kahoot Lobby Theme Ukulele Chords

79 views 45 this week
no commentswrite comment
1 2 3 4 5
2 more votes to show rating
add to favorites
launch autoscroll
font size
0
reset
transpose
0
reset
display chords
guitar tuner
Autoscroll
slow
fast
+/-
esc
set tempo
stop
Help us to improve Ultimate-Guitar.com Take our survey!
×
Author
Difficulty
intermediate
About this tab version
Shortened version of Kahoot Lobby Theme. Ukulele fingersyle. Listening to the song during the learning process is recommended. Was this info helpful? Yes No
This is an arrangement of the Kahoot Lobby theme that I threw together after listening to "Kahoot Lobby theme 
10 hours" on YouTube.
I'm aware that this isn't the full version of the song, but I have not gotten around to arranging the rest.
That being said, if you complete it yourself, feel free to leave your tabs in the comment section below. 
I hope you enjoy this cute little ukulele finger style piece as much as I do! 

Section A:

A|------------3--------1--3------------------------------------------|
E|--------3-3----3--3--------3-3--3-3------1---1-1----1---1-1--------|
C|---0----3-3----3-----------3-3--3-3----------0-0--------0-0--------|
G|-------------------------------------------------------------------|

A|------------------------|
E|---1-----3--------------|(x2) 
C|---0--------3--2--0-----|
G|------------------------|

Section B:

A|--------------------------------------------------------------------|
E|--------1-1----4-4---1-1--1-1--1-1----3-3-------------3-3--3-3--3-3-|(x2)
C|--0-0----------------0-0--0-0--0-0---------2-2--3-3---0-0--0-0--0-0-|
G|--------------------------------------------------------------------|
-it can repeat from the beginning. It loops. 
Suggest correction
Give kudos to tab author, rate the tab!
1 2 3 4 5
comments
print report bad tab
guest
You may want to rate the tab now too:
select rating
Wanna post a correction for this tab? Suggest correction