Oops, an error
Loading. Please wait.

Kikokugai The Cyber Slayer - Acid Rain Tab

1 view 1 this week
no commentswrite comment
1 2 3 4 5
3 more votes to show rating
add to favorites
launch autoscroll
font size
0
reset
how to read this tab
guitar tuner
Autoscroll
slow
fast
+/-
esc
set tempo
stop
Help us to improve Ultimate-Guitar.com Take our survey!
×
Author
Difficulty
intermediate
------------------------------------------------------------------------------
          Acid Rain - Zizz Studio (Kikokugai - The Cyber Slayer OST)          
------------------------------------------------------------------------------

Tabbed by: XCrusherX@gmail.com

Tuning: Standard

Contains the actual acoustic guitar and a guitar tablature for the lead part. 


--------- Acoustic Guitar ---------


[Intro]
e|----------------5------------------------------------------------|
b|--------------3------------------------------7-------------------|
g|------------0---------------------7-------5----------------------|
D|--------3/4-----------------------7----7---------7---------------|
A|-----2-----------------------------------------------------------|
E|--0--------------------------------------------------------------|
                                   *    *  *  *   *

[Part A]
e|----------------5--------5----------------------5----------------|
b|--------------3--------3-------3--------------3------------------|
g|------------0--------0-------0--------------0--------------------| x2
D|--------3/4--------4-------4------------3/4----------------------|
A|-----2-------------------------------2---------------------------|
E|--0-------------------------------0------------------------------|


[Part B]
e|-------------5-------------------------------2-----------0-------|
b|-------------3-------------------------------3---------3-------3-|
g|-------------0-------------------------------0-------0-------0---| 
D|--------3/4-----------------------------3/4--------4-------4-----|
A|-----2-------------------------------2---------------------------|
E|--0-------------------------------0------------------------------|

e|-------------5-------------------------------0-------------------|
b|-------------3--------------------------0------------0-------0---|
g|-------------0------------------------2------------2-------2-----| 
D|--------3/4-------------------------2------2-----2-------2-------|
A|-----2----------------------------0------------------------------|
E|--0--------------------------------------------------------------|

e|-------------5-------------------------------2-----------0-------|
b|-------------3-------------------------------3---------3-------3-|
g|-------------0-------------------------------0-------0-------0---| 
D|--------3/4-----------------------------3/4--------4-------4-----|
A|-----2-------------------------------2---------------------------|
E|--0-------------------------------0------------------------------|

e|----------------------------------------------------0h2----------|
b|-------------0--------------------0-----0--3----3---------3------|
g|-------------2--------------------0--------2--2---2-----2--------| 
D|--------2-------------------------2--2-----0---------------------|
A|-----0----------------------------3------------------------------|
E|--0--------------------------------------------------------------|


[Part A]
e|----------------5--------5----------------------5----------------|
b|--------------3--------3-------3--------------3------------------|
g|------------0--------0-------0--------------0--------------------| x2
D|--------3/4--------4-------4------------3/4----------------------|
A|-----2-------------------------------2---------------------------|
E|--0-------------------------------0------------------------------|


[Part B]
e|-------------5-------------------------------2-----------0-------|
b|-------------3-------------------------------3---------3-------3-|
g|-------------0-------------------------------0-------0-------0---| 
D|--------3/4-----------------------------3/4--------4-------4-----|
A|-----2-------------------------------2---------------------------|
E|--0-------------------------------0------------------------------|

e|-------------5-------------------------------0-------------------|
b|-------------3--------------------------0------------0-------0---|
g|-------------0------------------------2------------2-------2-----| 
D|--------3/4-------------------------2------2-----2-------2-------|
A|-----2----------------------------0------------------------------|
E|--0--------------------------------------------------------------|

e|-------------5-------------------------------2-----------0-------|
b|-------------3-------------------------------3---------3-------3-|
g|-------------0-------------------------------0-------0-------0---| 
D|--------3/4-----------------------------3/4--------4-------4-----|
A|-----2-------------------------------2---------------------------|
E|--0-------------------------------0------------------------------|

e|----------------------------------------------------0h2----------|
b|-------------0--------------------0-----0--3----3---------3------|
g|-------------2--------------------0--------2--2---2-----2--------| 
D|--------2-------------------------2--2-----0---------------------|
A|-----0----------------------------3------------------------------|
E|--0--------------------------------------------------------------|


[Part C]
e|----------------0-------------------------------0--------0-------|
b|--------------3------------3------------------3--------3-------3-|
g|------------0------------0------------------0--------0-------0---|
D|--------3/4------------4----------------3/4--------4-------4-----|
A|-----2-------------------------------2---------------------------|
E|--0-------------------------------0------------------------------|

e|----------------0------0------------------------0--------0-------|
b|--------------3----------------3--------------3--------3-------3-|
g|------------0--------0-------0--------------0--------0-------0---|
D|--------3/4--------4-------4------------3/4--------4-------4-----|
A|-----2-------------------------------2---------------------------|
E|--0-------------------------------0------------------------------|


[Part D]
e|----------------------2---0-----------------------------0--------|
b|--12---12-12--12----3---3---3---3-0------0--0-----------0----0---|
g|---9----0---------------------4---0------0--0-------0------0---0-|
D|--10------10---0------------------5----4-5--------2---2----------|
A|--------------------------------------------3--------------------|
E|-----------------------------------------------------------------|

e|----------------------2---0--------------------0---------0-------|
b|--12---12-12--12----3---3---3---3---------3--3---------3-------3-|
g|---9----0---------------------4---------0------------0-------0---|
D|--10------10---0----------------------2------------2-------2-----|
A|------------------------------------2----------------------------|
E|----------------------------------0------------------------------|

e|----------------------2---0------------------------------0-------|
b|--12---12-12--12----3---3---3---3-0------0--0----------0-------0-|
g|---9----0---------------------4---0------0--0--------0-------0---|
D|--10------10---0------------------5----4-5---------2-------2-----|
A|--------------------------------------------3--------------------|
E|-----------------------------------------------------------------|

e|---------------0-------------------------------0-----------------|
b|--0------0-------------0------0-----------0------------0-------0-|
g|--2----2-----2-------2------2-----------2----2-------2-------2---|
D|--3--3-----3-------3------3-----------3------------3-------3-----|
A|-----------------------------------------------------------------|
E|----------------------------------1------------------------------|


[Part A]
e|----------------5--------5----------------------5----------------|
b|--------------3--------3-------3--------------3------------------|
g|------------0--------0-------0--------------0--------------------|
D|--------3/4--------4-------4------------3/4----------------------|
A|-----2-------------------------------2---------------------------|
E|--0-------------------------------0------------------------------|


[Part B]
e|-------------5-------------------------------2-----------0-------|
b|-------------3-------------------------------3---------3-------3-|
g|-------------0-------------------------------0-------0-------0---| 
D|--------3/4-----------------------------3/4--------4-------4-----|
A|-----2-------------------------------2---------------------------|
E|--0-------------------------------0------------------------------|

e|-------------5-------------------------------0-------------------|
b|-------------3--------------------------0------------0-------0---|
g|-------------0------------------------2------------2-------2-----| 
D|--------3/4-------------------------2------2-----2-------2-------|
A|-----2----------------------------0------------------------------|
E|--0--------------------------------------------------------------|

e|-------------5-------------------------------2-----------0-------|
b|-------------3-------------------------------3---------3-------3-|
g|-------------0-------------------------------0-------0-------0---| 
D|--------3/4-----------------------------3/4--------4-------4-----|
A|-----2-------------------------------2---------------------------|
E|--0-------------------------------0------------------------------|

e|----------------------------------------------------0h2----------|
b|-------------0--------------------0-----0--3----3---------3------|
g|-------------2--------------------0--------2--2---2-----2--------| 
D|--------2-------------------------2--2-----0---------------------|
A|-----0----------------------------3------------------------------|
E|--0--------------------------------------------------------------|


[Outro]
e|----------------0-----5------------------------5-------------0---|
b|--------------3---------------3--------------3----------0------3-|
g|------------0-------0-------0--------------0----------0----0-----|
D|--------3/4-------4-------4------------3/4----------4------------|
A|-----2-------------------------------2---------------------------|
E|--0-------------------------------0------------------------------|

e|----------------5----------0--------------0--0-------------------|
b|--------------3-------3-------3---------0----0-------------------|
g|------------0-------0------------------------2-------------------|
D|--------3/4-------4-----------------2--------2-------------------|
A|-----2----------------------------0----------0-------------------|
E|--0--------------------------------------------------------------|



--------- Lead Part ---------

e|------------------------------------------------------------------------------|
b|---------7----5h7----8h10--7----7h8p7/5h7------------7----5h7--8--5--3/2------|
g|-2/4--7--------------------------------------2/4--7---------------------------|
D|------------------------------------------------------------------------------|
A|------------------------------------------------------------------------------|
E|------------------------------------------------------------------------------|

e|--------------------------------------------------------------7---------------|
b|---------7----5h7----8h10--7----7h8p7/5h7------------7--5--7-----5-7--8h10----|
g|-----------------------------------------------4--7---------------------------|
D|------------------------------------------------------------------------------|
A|------------------------------------------------------------------------------|
E|------------------------------------------------------------------------------|

e|------------------------------------------------------------------------------|
b|--(10)b12~------------------------------------14~----15b17br15-14-----12------|
g|------------------------------------------------------------------------------|
D|------------------------------------------------------------------------------|
A|------------------------------------------------------------------------------|
E|------------------------------------------------------------------------------|

e|------------------------------------------------------------------------------|
b|---------7----5h7----8h10--7----7h8p7/5h7------------7----5h7--8--5--3/2------|
g|-2/4--7--------------------------------------2/4--7---------------------------|
D|------------------------------------------------------------------------------|
A|------------------------------------------------------------------------------|
E|------------------------------------------------------------------------------|

e|-----------------------------------------------------------------7------------|
b|---------7----5h7----8h10--7----7h8p7/5h7------------7---8-5--7-----5-7--8h10-|
g|------------------------------------------------4-7---------------------------|
D|------------------------------------------------------------------------------|
A|------------------------------------------------------------------------------|
E|------------------------------------------------------------------------------|

e|------------------------------------------------------------------------------|
b|--(10)b12~--------------------------------------------------------------------|
g|------------------------------------------------------------------------------|
D|------------------------------------------------------------------------------|
A|------------------------------------------------------------------------------|
E|------------------------------------------------------------------------------|


e|------------7----10-----------------------------------------------------------|
b|--7--8--10----------10--10/12------------------7--8--10--7--5h7h8----10-------|
g|------------------------------------------------------------------------------|
D|------------------------------------------------------------------------------|
A|------------------------------------------------------------------------------|
E|------------------------------------------------------------------------------|

e|------------7----10-----------------------------------------------------------|
b|--7--8--10----------10----8h10--12----10------10/12----10----12b13~br12-12~---|
g|-------------------------------------------9----------------------------------|
D|------------------------------------------------------------------------------|
A|------------------------------------------------------------------------------|
E|------------------------------------------------------------------------------|


e|------------------------------------------------------------------------------|
b|---------7----5b7----8h10--7----7h8p7/5h7------------7----5h7--8--5--3/2------|
g|---4--7------------------------------------------4/7--------------------------|
D|------------------------------------------------------------------------------|
A|------------------------------------------------------------------------------|
E|------------------------------------------------------------------------------|

e|-----------------------------------------------------------------7------------|
b|---------7----5h7----8h10--7----7h8p7/5h7------------7---8-5--7-----5-7--8h10-|
g|------------------------------------------------4-7---------------------------|
D|------------------------------------------------------------------------------|
A|------------------------------------------------------------------------------|
E|------------------------------------------------------------------------------|

e|------------------------------------------------------------------------------|
b|--(10)b12~--------------------------------------------------------------------|
g|------------------------------------------------------------------------------|
D|------------------------------------------------------------------------------|
A|------------------------------------------------------------------------------|
E|------------------------------------------------------------------------------|



* = natural harmonic
/ = slide
h = hammer-on
p = pull-off
b = bend
br = bend release
~ = vibrato
Suggest correction
Give kudos to tab author, rate the tab!
1 2 3 4 5
comments
print report bad tab
guest
You may want to rate the tab now too:
select rating
Wanna post a correction for this tab? Suggest correction