Oops, an error
Loading. Please wait.

King Of Fighters Xiii - Wild Street Ost Tab

25 views 1 this week
no commentswrite comment
1 2 3 4 5
3 more votes to show rating
add to favorites
launch autoscroll
font size
0
reset
how to read this tab
guitar tuner
Autoscroll
slow
fast
+/-
esc
set tempo
stop
Help us to improve Ultimate-Guitar.com Take our survey!
×
Author
Difficulty
intermediate
About this tab version
I wrote the bars according to phrases so it is easier to understand. Also here is a video so that you can see the song and understand it easier. https://www.youtube.com/watch?v=PuGO9JzwaVg. Was this info helpful? Yes No
[Section A] 

e|----------------|----------------|-------------------|---------------------|------------------|
B|----------------|hm--------hm----|-------------------|----hm-----------hm--|------------------|
G|------6\5-------|8p6-------6h8---|9-8-6--8-6---------|----8p6----------6h8-|-10-10---13-13----|
D|----------6-----|---8----8-------|9-8-6--8-6-8-6/7/8-|--------8------8-----|-8--8----11-11----|
A|7h8h9-------8---|------8-------8-|-----------8-4/5/6-|-8-8-------8-8-------|------------------|
E|------------6---|------6-------6-|-------------------|-6-6-------6-6-------|------------------|

e|--------------------|--------------------|--------------------|------------------|
B|---hm----------hm---|--------------------|----hm----------hm--|------------------|
G|---8p6---------6h8--|-9-8-6--8-6---------|----8p6---------6h8-|-10-10---13-13----|
D|-------8----8-------|-9-8-6--8-6-8-6/7/8-|--------8-----8-----|-8--8----11-11----|
A|-8-------8--------8-|------------8-4/5/6-|8-8-------8-8-------|------------------|
E|-6-------6--------6-|--------------------|6-6-------6-6-------|------------------|


[Section B]

e|----------------------|----------------------|----------------------|----------------------|
B|----------------------|----------------------|----------------------|----------------------|
G|----6-8--9-8-6--8-6---|----6-8-9-8-6-8-6--6~-|----6-8--9-8-6--8-6---|----6-8--9-8-6--8-6---|
D|8-6-----------------8-|8-6---------------8---|8-6-----------------8-|8-6-----------------8-|
A|----------------------|----------------------|----------------------|----------------------|
E|----------------------|----------------------|----------------------|----------------------|


[Section C]

e|------------------------------|----------------|-------------------|
B|11-9---9----------------------|----------------|-------------------|
G|-----10-10--8-10-6-8-6~---8-6~|-----6-8-6~-----|-----6-8-6---8/10~-|
D|------------------------8-----|-6-8------------|-6-8-------8-------|
A|------------------------------|----------------|-------------------|
E|------------------------------|----------------|-------------------|

e|-----------------------------------|-------------------|-------------------|----------------|
B|11-9---9---------------------------|-------------------|-------------------|----------------|
G|-----10-10--8-10-6-8-6~---8-6-8/10~|-----6--8-6--8/10~-|-----6-8-6---8/10~-|----------------|
D|------------------------8----------|-6-8---------------|-6-8-------8-------|-------8-10-11--|
A|-----------------------------------|-------------------|-------------------|8-9-11----------|
E|-----------------------------------|-------------------|-------------------|----------------|


[Section D]

e|--------------------------------------------------|
B|---------------------------------------2----------|
G|1-3-3-3-3-3--1-3-3-3-3-3--1-3-3-3-3-3----3-1-3hm--|
D|--------------------------------------------------|
A|--------------------------------------------------|
E|--------------------------------------------------|

e|--------------------------------------------------------|
B|--------------------------------------2-4-2-4-2---------|
G|1-3-3-3-3-3--1-3-3-3-3-3--1-3-3-3-3-3-----------3-------|
D|--------------------------------------------------------|
A|--------------------------------------------------------|
E|--------------------------------------------------------|


[Section E]

e|---------------------------------|-------------------|-----------------|
B|11-9---9-------------------------|------9-8----------|-----------------|
G|-----10-10--8-10-6-8-6~---8-6/13-|----6-----6/8~-----|-----6/15-14~----|
D|------------------------8--------|-6-8---------------|-6-8-------------|
A|---------------------------------|-------------------|-----------------|
E|---------------------------------|-------------------|-----------------|

e|----------------|----------------|----------------|-----------------|
B|----------------|----------------|----------------|13-14---13-------|
G|10~-8-10-13~----|-10--13--15~----|-13--15--17~----|-----15----13-15-|
D|----------------|----------------|----------------|-----------------|
A|----------------|----------------|----------------|-----------------|
E|----------------|----------------|----------------|-----------------|

Second guitar, both are played at the same time but only the second time.

e|13~--11-13-16~--|-13--16--18~----|-16--18--20~----|20-21--18-20--16-18--|
B|----------------|----------------|----------------|---------------------|
G|----------------|----------------|----------------|---------------------|
D|----------------|----------------|----------------|---------------------|
A|----------------|----------------|----------------|---------------------|
E|----------------|----------------|----------------|---------------------|


[Section F]

e|-----------------------------------------------------|
B|---------------------------------------2-----hm------|
G|1-3-3-3-3-3--1-3-3-3-3-3--1-3-3-3-3-3----3-1-3-------|
D|-----------------------------------------------------|
A|-----------------------------------------------------|
E|-----------------------------------------------------|

e|--------------------------------------------------4-6---|
B|---------------------------------2-2-2--4-4-4--6--------|
G|1-3-3-3-3-3--1-3-3-3-3-3--1-3-3-------------------------|
D|--------------------------------------------------------|
A|--------------------------------------------------------|
E|--------------------------------------------------------|



************************************

| h  Hammer-on
| p  Pull-off
| \  Slide down
| /  Slide up
| ~  Vibrato  
| hm  Harmonic

************************************
Suggest correction
Give kudos to tab author, rate the tab!
1 2 3 4 5
comments
print report bad tab
guest
You may want to rate the tab now too:
select rating
Wanna post a correction for this tab? Suggest correction