Oops, an error
Loading. Please wait.

Kingdom Hearts - Dearly Beloved tab

version 2
58,241 views 48 this week
5 commentsread comments
1 2 3 4 5
x 17
add to favorites
×
Save as Personal and add changes to this tab that will be seen only by you. Learn more ›
×
You can save this tab as Personal to edit and correct it or add notes. All changes will be seen only by you. Learn more »
launch autoscroll
font size
0
reset
how to read this tab
guitar tuner
edit
Autoscroll
slow
fast
+/-
esc
set tempo
stop
Hey, this is my first tab ever so don't eat me xD
-Kelli




e|-8-8---------10-10-|  
B|-----8-8-6-6-------|  
G|-------------------|   
D|-------------------|x2 
A|-------------------|   
E|-------------------| 

e|-11-11-10-10-/15-15-13h15p13h-13-11-11-10-10-8-8-6-6-|
B|-----------------------------------------------------|
G|-----------------------------------------------------|
D|-----------------------------------------------------|
A|-----------------------------------------------------|
E|-----------------------------------------------------| 

Then you repeat and that's it.
Real easy stuff. 

The 13h15p13 is a quick trill
and
/ = slide

Have fun kiddies.

ADD:

e|-8-8---------10-10-|  
B|-----8-8-6-6-------|  
G|-------------------|   
D|-------------------|x2 
A|-------------------|   
E|-------------------| 

e|-11-11-10-10-/15-15-13h15p13h-13-11-11-10-10-8-8-15--|
B|-----------------------------------------------------|
G|-----------------------------------------------------|
D|-----------------------------------------------------|
A|-----------------------------------------------------|
E|-----------------------------------------------------|

e|-8---10--6--8--15--13--15--16-18-15-13-15--|
B|-------------------------------------------|
G|-------------------------------------------|
D|-------------------------------------------|
A|-------------------------------------------|
E|-------------------------------------------|

            
            
Suggest correction
Creating personal tab
Creating personal tab
You can edit any tab online and save it as your Personal.

You can edit, replace or remove any tab part or add personal notes – all changes will be seen only by you.

Personal tabs can be accessed anytime from any device, even offline.
Learn more »
comments
print report bad tab
5 comments total. Showing first comments.
0 reply
Bcguard74 10 Jun 09, 2008 06:25 AM

Thank YOU U ARE THE ONLY PERSON TO CORRECTLY TAB THIS OUT

4.9 stars

the only thing is that the 6's on the 2nd could be played as 10's on the 3rd string

0 reply
dudeman9199 10 Nov 07, 2009 03:19 PM

yes i agree you are the only one to tab this correctly. good job :]

0 reply
jkennewell39 10 Apr 04, 2014 04:06 PM

I've learnt two versions of this I beloved this is the more accurate of them so yeah great job

guest
You may want to rate the tab now too:
select rating
Wanna post a correction for this tab? Suggest correction