Oops, an error
Loading. Please wait.

Kingdom Hearts - Fragments Of Sorrow tab

28 views 1 this week
no commentswrite comment
1 2 3 4 5
3 more votes to show rating
add to favorites
×
Save as Personal and add changes to this tab that will be seen only by you. Learn more ›
×
You can save this tab as Personal to edit and correct it or add notes. All changes will be seen only by you. Learn more »
launch autoscroll
font size
0
reset
how to read this tab
guitar tuner
edit
Autoscroll
slow
fast
+/-
esc
set tempo
stop
About this tab version
This version requires a looper pedal, and therefore without one t cannot be played. The whole song build around the original beat of the first loop. This is intended for an acoustic guitar, although it would also work on a metal electric. Was this info helpful? Yes No
Drop D Tuning

[Loop Pattern #1]
e|--5-----------------------|--------------------------|--3-----------------------|
B|--6-----------------------|--------------------------|--5-----------------------|
G|--7-----------------------|--------------------------|--5-----------------------|
D|--0-----0-----0-----0-----|--0-----0-----0-----0-----|--0-----0-----0-----0-----|
A|--0--------------------0--|-----------------------0--|--0--------------------0--|
D|--0-----------------------|--------------------------|--0-----------------------|

e|--------------------------|
B|--------------------------|
G|--------------------------|
D|--0-----0-----0-----0-----|
A|-----------------------0--|
D|--------------------------|

e|--10---------------------8--|---7---8--10---------8---7---8--|
B|--10--------------------10--|--10--10--10--------10--10--10--|
G|----------------------------|--------------------------------|
D|----------------------------|--------------------------------|
A|----------------------------|--------------------------------|
D|----------------------------|--------------------------------|

e|--5--7--8-----------------|-----------------7--5--7--|--5-------------------------|
B|--8--8--8-----------------|-----------------8--8--8--|--3-------------------------|
G|--------------------------|--------------------------|-------------0--------------|
D|--------------------------|--------------------------|----------------------------|
A|--------------------------|--------------------------|----------------------------|
D|--------------------------|--------------------------|----------------------------|

e|-----3-----5--1-----------|--0-------------------------|--------------5-----8-----|
B|-----3-----3--3-----------|--1-------------------------|--6-----8-----5-----8-----|
G|--------------------------|-------------0--------------|--5-----7-----------------|
D|--------------------------|----------------------------|--------------------------|
A|--------------------------|----------------------------|--------------------------|
D|--------------------------|----------------------------|--------------------------|

e|--10---------------------8--|---7---8--10--------12--10---8--|--5--7--8-----------------|
B|--10--------------------10--|--10--10--10--------10--10--10--|--8--8--8-----------------|
G|----------------------------|--------------------------------|--------------------------|
D|---0-----0-----0-----0------|---0-------0-----0-------0------|--0-----0-----0-----0-----|
A|-------------------------0--|-----------------------------0--|-----------------------0--|
D|----------------------------|--------------------------------|--------------------------|

E|-----------------7--5--7--|--5---------------------------|-----3-----5--1-----------|
B|-----------------8--8--8--|--3---------------------------|-----3-----3--3-----------|
G|--------------------------|-------------0-------------0--|--------------------------|
D|--0-----0-----0-----0-----|--0--0--2h-3----0--0--2h-3----|--0-----0-----0-----0-----|
A|-----------------------0--|---------------------------0--|-----------------------0--|
D|--------------------------|------------------------------|--------------------------|

[Loop Pattern #2]
e|---------------------------------|-----------------------------|--------------------------------|
B|---------------------------------|-----------------------------|--------------------------------|
G|---------------------------------|-----------------------------|--------------------------------|
D|---------------------------------|-----------------------------|--------------------------------|
A|--0--0--2h-3-5--0--0--2h-3-5-----|-----------------------------|-----------------------------0--|
D|--0--0--2h-3-5--0--0--2h-3-5--0--|-0--0--0----0--0--0--0----0--|----0--0--0----0--0--0--0----0--|

[Loop Pattern #3]
e|--0--0--2h-3-5--0--0--2h-3-5--0--|-0--0--0----0--0--0--0----0--|----------------------------------|
B|---------------------------------|-----------------------------|----------------------------------|
G|---------------------------------|-----------------------------|----------------------------------|
D|---------------------------------|-----------------------------|----------------------------------|
A|---------------------------------|-----------------------------|----------------------------------|
D|---------------------------------|-----------------------------|----------------------------------|
 
e|------------------------------|------------------------------|--------------------------|
B|--0---------------------------|---------------------------3--|-----5-----6--3-----------|
G|--1---------------------------|----------------3--3--5h-6----|-----3-----3--3-----------|
D|------------------------------|-------------0----------------|--------------------------|
A|------------------------------|--0--0--2h-3------------------|--0-----0-----0-----0-----|
D|------------------------------|------------------------------|-----------------------0--|

(Next 7 measures are played in time with Looper Patter #1)
e|-----3-----5--1-----------|--------------------------|--------------------------|
B|-----3-----3--3-----------|-----6-----8--5-----6-----|--3-----5-----------------|
G|--------------------------|-----5-----5--5-----5-----|--5-----5-----2-----5-----|
D|--------------------------|--------------------------|--0-----0-----2-----5-----|
A|--------------------------|--------------------------|--------------------------|
D|--------------------------|--------------------------|--------------------------|

e|-----5-----6--3-----------|-----3-----5--1-----------|--------------------------|
B|--3--3-----3--3-----------|-----3-----3--3-----------|-----6-----8--5-----6-----|
G|--2-----------------------|--------------------------|-----5-----5--5-----5-----|
D|--------------------------|--------------------------|--------------------------|
A|--------------------------|--------------------------|--------------------------|
D|--------------------------|--------------------------|--------------------------|

e|--------------------5-----|
B|--3-----5-----6-----------|
G|--5-----5-----5-----5-----|
D|--------------------------|
A|--------------------------|
D|--------------------------|

[Looper Pattern #4]
e|------------------------------|------------------------------|
B|------------------------------|------------------------------|
G|------------------------------|------------------------------|
D|------------------------------|------------------------------|
A|--8------8-------8-----8------|--8------8-------8-----8------|
D|-------------------------10---|-------------------------10---|

e|------8------9----------------|-------------8----------------|
B|----------------11------------|-----11----------9------------|
G|-----10-----10--10------------|-----10-----10--10------------|
D|------------------------------|------------------------------|
A|------------------------------|------------------------------|
D|------------------------------|------------------------------|

e|----------------------------|------------------------------|
B|-----9-----11--8-----9------|---------8------------11------|
G|-----8------8--8-----8------|--10-----8------------12------|
D|----------------------------|--13-----------10-------------|
A|--8-----8------8-----8------|---8-----8-----11-------------|
D|------------------------10--|--------------------------10--|

e|------8------9----------------|-------------8----------------|
B|----------------11------------|-----11----------9------------|
G|-----10-----10--10------------|-----10-----10--10------------|
D|------------------------------|------------------------------|
A|--8------8-------8-----8------|--8------8-------8-----8------|
D|--------------------------10--|--------------------------10--|

                                                      (LOOPER OFF!!)                                
e|----------------------------|---------------------8------|-------5--------------------|
B|-----9-----11--8-----9------|---------8-----9------------|--6p-5-6--------------------|
G|-----8------8--8-----8------|--10-----8-----8-----8------|-------7--------------------|
D|----------------------------|--13------------------------|-------0--0-----0-----0-----|
A|--8-----8------8-----8------|---8-----8-----8-----8------|-------0-----------------0--|
D|------------------------10--|------------------------10--|-------0--------------------|

e|--------------------------|--3-----------------------|---------------------------|
B|--------------------------|--5-----------------------|---------------------------|
G|--------------------------|--5-----------------------|---------------------------|
D|--0-----0-----0-----0-----|--0-----0-----0-----0-----|--0-----0-----0-----0------|
A|-----------------------0--|--0--------------------0--|-----------------------0---|
D|--------------------------|--0-----------------------|---------------------------|

e|--5-----------------------|--------------------------|--3-----------------------|
B|--6-----------------------|--------------------------|--5-----------------------|
G|--7-----------------------|--------------------------|--5-----------------------|
D|--0-----0-----0-----0-----|--0-----0-----0-----0-----|--0-----0-----0-----0-----|
A|--0--------------------0--|-----------------------0--|--0--------------------0--|
D|--0-----------------------|--------------------------|--0-----------------------|
                           
e|--------------------------|-----------------------|
B|--------------------------|--3--------------------|
G|--------------------------|--2--2-----------------|
D|--0-----0-----0-----0-----|--0-----3--2--0--------|
A|-----------------------0--|--0-----------0--------|
D|--------------------------|--0-----------0--------|

**************************

| p    Pull-off 
| h    Hammer-on

***********************
Suggest correction
Creating personal tab
Creating personal tab
You can edit any tab online and save it as your Personal.

You can edit, replace or remove any tab part or add personal notes – all changes will be seen only by you.

Personal tabs can be accessed anytime from any device, even offline.
Learn more »
Give kudos to tab author, rate the tab!
1 2 3 4 5
comments
print report bad tab
guest
You may want to rate the tab now too:
select rating
Wanna post a correction for this tab? Suggest correction