Oops, an error
Loading. Please wait.

Koji Kondo - Prelude Of Light Ost The Legend Of Zelda Ocarina Of Time Tab

55 views 6 this week
no commentswrite comment
1 2 3 4 5
3 more votes to show rating
add to favorites
launch autoscroll
font size
0
reset
how to read this tab
guitar tuner
Autoscroll
slow
fast
+/-
esc
set tempo
stop
Help us to improve Ultimate-Guitar.com Take our survey!
×
Author
Difficulty
About this tab version
A fun, easy beginner way to play one of Ocarina of Time's songs, no capo needed. Was this info helpful? Yes No
[Intro]

e|---10------10------------10------------------------------------------------|
B|-------10------10---12-----------------------------------------------------|
G|---------------------------------------------------------------------------|
D|---------------------------------------------------------------------------|
A|---------------------------------------------------------------------------|
E|---------------------------------------------------------------------------|

    you may also like 

e|---12--------12--------9----12---------------------------------------------|
B|--------12--------12-------------------------------------------------------|
G|---------------------------------------------------------------------------|
D|---------------------------------------------------------------------------|
A|---------------------------------------------------------------------------|
E|---------------------------------------------------------------------------|


************************************
Simple fun tab, enjoy fellow gamers!
Suggest correction
Give kudos to tab author, rate the tab!
1 2 3 4 5
comments
print report bad tab
guest
You may want to rate the tab now too:
select rating
Wanna post a correction for this tab? Suggest correction