Oops, an error
Loading. Please wait.

Koji Kondo - Super Mario Bros Theme Tab

145 views 6 this week
no commentswrite comment
1 2 3 4 5
3 more votes to show rating
add to favorites
launch autoscroll
font size
0
reset
how to read this tab
guitar tuner
Autoscroll
slow
fast
+/-
esc
set tempo
stop
Help us to improve Ultimate-Guitar.com Take our survey!
×
Author
Difficulty
intermediate
A|-3----------------3-7-12-8-10-7-3-5-2-15-|
E|---3-0--5-7-6-5-3------------------------|
C|-----------------------------------------|
G|-----------------------------------------|(x2)

A|-10-9-8----7---------------10-9-8----7-15-15-15-|
E|--------10-------8---8-10---------10------------|
C|-------------7-9---9----------------------------|
G|------------------------------------------------|

A|-10-9-8----7----------------------------|
E|--------10-------8---8-10-11-10-8-2-2-2-|
C|-------------7-9---9--------------------|
G|----------------------------------------|

A|-3-3-3-3-5-7-3-0-----3-3-3-3-5-7-10---3-3-3-3-5-7-3-0----7-7-7-3-7-10---|
E|-----------------3-----------------3-------------------3--------------2-|
C|------------------------------------------------------------------------|
G|------------------------------------------------------------------------|

A|-7-3-------8-8-----12-12-12-10-8----------|
E|-----3-4-5-----5-7---------------12-8-5-3-|
C|------------------------------------------|
G|------------------------------------------|

A|-7-3-------8-8-----8-8-8-7-5-3-----|
E|-----3-4-5----5-7--------------3---|
C|---------------------------------0-|
G|-----------------------------------|
Suggest correction
Give kudos to tab author, rate the tab!
1 2 3 4 5
comments
print report bad tab
guest
You may want to rate the tab now too:
select rating
Wanna post a correction for this tab? Suggest correction