Oops, an error
Loading. Please wait.

Legend Of The Dragoon - Royal Castle Tab

version 1
version 1

Whole song

Interactive

452 views 1 this week
no commentswrite comment
1 2 3 4 5
3 more votes to show rating
add to favorites
launch autoscroll
font size
0
reset
how to read this tab
guitar tuner
Autoscroll
slow
fast
+/-
esc
set tempo
stop
Help us to improve Ultimate-Guitar.com Take our survey!
×
Legend of the Dragoon

Title: Royal Castle

Artist:
Takao Miratsu
Dennis Martin

I pretty much followed the MIDI and then changed, added, or moved things
around to get a combination between the guitar and piano, so it should be
pretty spot on. I'm sure it goes without saying, but I recommend listening
to the song to get the correct rhythm.

Legend
h - hammer on
p - pull off
^ - bend
/\ - slide
* - Pinch Harmonic


E |--10-------8-----------|
B |-----11------11--------|
G |-----------------------|
D |-----------------------|
A |-----------------------|
E |-----------------------|


--8---------------------|
----10-----10h11p10-8---|
------------------------|
------------------------|
------------------------|
------------------------|


|--10------8-----11-11---|
|-----11------11---------|
|------------------------|
|------------------------|
|------------------------|
|------------------------|


--10--8--13--11--10------|--10------8----|
-----------------------8-|-----11----11--|
-------------------------|---------------|
-------------------------|---------------|
-------------------------|---------------|
-------------------------|---------------|


--8-----------------------|
-------10----10h11p10-8---|
--------------------------|
--------------------------|
--------------------------|
--------------------------|


|--10-------8-----11-11-|
|-----11-----11---------|
|-----------------------|
|-----------------------|
|-----------------------|
|-----------------------|


--10-8-----8--10-11----11---|--10----------8---------|
--------11------------------|--------11-11-------6h8-|
----------------------------|------------------------|
----------------------------|------------------------|
----------------------------|------------------------|
----------------------------|------------------------|


--11---11--10----------10h11/13--|
-----------------11-11-----------|
---------------------------------|
---------------------------------|
---------------------------------|
---------------------------------|


--11---11----10---------8---------|
------------------11-11-------6h8-|
----------------------------------|
----------------------------------|
----------------------------------|
----------------------------------|


--11----11--10----------10h11/13--|
------------------11-11-----------|
----------------------------------|
----------------------------------|
----------------------------------|
----------------------------------|


--17-18-17-15----17-----18-----20-*21^---|
-----------------------------------------|
-----------------------------------------|
-----------------------------------------|
-----------------------------------------|


----20---18-17-15\13h15---|
--------------------------|
--------------------------|
--------------------------|
--------------------------|
--------------------------|


--17h18p17p15----17------18------17------15---|
----------------------------------------------|
----------------------------------------------|
----------------------------------------------|
----------------------------------------------|
----------------------------------------------|


13------------------------|
------15-----13----15-----|
--------------------------|
--------------------------|
--------------------------|
--------------------------|


--17-18-17-15----17-----18------20--21^---|
------------------------------------------|
------------------------------------------|
------------------------------------------|
------------------------------------------|
------------------------------------------|


---20--18-17h18p17--15--13---|
-----------------------------|
-----------------------------|
-----------------------------|
-----------------------------|
-----------------------------|


--17h18p17p15----17----15----13-----15--13-|
---------------------------------15---13---|
-------------------------------------------|
-------------------------------------------|
-------------------------------------------|
-------------------------------------------|


-----|--11-10-8-------------------|
15---|----------11-10----8-10-11--|
-----|----------------------------|
-----|----------------------------|
-----|----------------------------|
-----|----------------------------|


-----------11-10-8----------|-------------10-|--11-10-8-------------------|
--8--10-11----------11-10---|--8-10-11-------|-----------11-10----8-10-11-|
----------------------------|----------------|----------------------------|
----------------------------|----------------|----------------------------|
----------------------------|----------------|----------------------------|
----------------------------|----------------|----------------------------|


-------------11-10-8--------|-------------10-||
-8--10-11-----------11-10---|--8--10-11------||
----------------------------|----------------||  *Back to top Repeat*
----------------------------|----------------||
----------------------------|----------------||
----------------------------|----------------||
Suggest correction
Give kudos to tab author, rate the tab!
1 2 3 4 5
comments
print report bad tab
guest
You may want to rate the tab now too:
select rating
Wanna post a correction for this tab? Suggest correction