Oops, an error
Loading. Please wait.

Legend Of Zelda - Boss Battle Majoras Mask tab

2,518 views 6 this week
no commentswrite comment
1 2 3 4 5
x 3
add to favorites
×
Save as Personal and add changes to this tab that will be seen only by you. Learn more ›
×
You can save this tab as Personal to edit and correct it or add notes. All changes will be seen only by you. Learn more »
launch autoscroll
font size
0
reset
how to read this tab
guitar tuner
edit
Autoscroll
slow
fast
+/-
esc
set tempo
stop
Legend of Zelda: Majora's Mask; Boss Battle Theme             /\
                                                             /  \
Tuning: DADGBE                                              /____\
 by, Brianstanek25                                         /\    /\
                                                          /  \  /  \
                                                         /    \/    \
E|---15h16h17-----15h16h17---16h17h18----|               ------------
B|---------------------------------------|               
G|---------------------------------------|        REMEMBER TO LEAVE A RATING
D|---------------------------------------|
A|---------------------------------------|
D|---------------------------------------|

E|------------------------------|
B|------------------------------|
G|-7---7--7-85---7---7--7-810---| x2
D|------------------------------|
A|------------------------------|
D|------------------------------|

E|-------------------------------------|
B|-------------------------------------|
G|-12---12--12-1310---12---12--12-1315-|
D|-------------------------------------|
A|-------------------------------------|
D|-------------------------------------|

E|-------------------------------------|
B|-------------------------------------|
G|-14---14--14-1512---14---14--14-1517-|
D|-------------------------------------|
A|-------------------------------------|
D|-------------------------------------|

E|-------------------------|
B|---15---15----15h16h15h13|
G|-------------------------|
D|-------------------------|
A|-------------------------|
D|-0----0----0-------------|

E|----------------------------|
B|---15---15----15h16h15h13h12|
G|----------------------------|
D|----------------------------|
A|----------------------------|
D|-0----0----0----------------|

E|--------------------------------------------15h16h17-15h16h17-|
B|---------8-7-11--12-6------8-10-----8-------------------------|
G|-9--6-5-----------------7--------6----6-----------------------|
D|----------------------------------------6---------------------|
A|--------------------------------------------------------------|
D|--------------------------------------------------------------|

E|--------------------------------------|
B|---------6-5-9--10-4-------7-8-/11-10-|
G|-7--4-3-----------------5-------------|
D|--------------------------------------|
A|--------------------------------------|
D|--------------------------------------|

E|-----------------------10--10-10-11-8-10--10-10-11-8-10-10~|
B|-----------------------------------------------------------|
G|-7---7--7-857---7--7-857---7--7--8--5-7---7--7--8--5-7--7~ |
D|-----------------------------------------------------------|
A|-----------------------------------------------------------|
D|-----------------------------------------------------------|

E|-11p10p8-------------------------------|
B|--------11p10p9p8----7----10----9----8-|
G|---------------------------------------|
D|---------------------------------------|
A|---------------------------------------|
D|---------------------------------------|

The Song just repeats over and over from this point.

Thank you! This was my first released tab! :D

There are other instruments in the background that have an even lower pitch than 
the Drop D tuning, but they are a little hard to hear.

            
            
Suggest correction
Creating personal tab
Creating personal tab
You can edit any tab online and save it as your Personal.

You can edit, replace or remove any tab part or add personal notes – all changes will be seen only by you.

Personal tabs can be accessed anytime from any device, even offline.
Learn more »
Give kudos to tab author, rate the tab!
1 2 3 4 5
comments
print report bad tab
guest
You may want to rate the tab now too:
select rating
Wanna post a correction for this tab? Suggest correction