Oops, an error
Loading. Please wait.

Legend Of Zelda - Clock Town Tab

version 1
version 1

Whole song

Interactive

38,919 views 99 this week
3 commentsread comments
1 2 3 4 5
excellent!
x 22
add to favorites
launch autoscroll
font size
0
reset
how to read this tab
guitar tuner
Tab Pro tools
  • play this tab
  • loop segment
  • change instrument
  • show fretboard
  • metronome
Autoscroll
slow
fast
+/-
esc
set tempo
stop
Contributor
Legend Of Zelda: Majora's Mask
Clock Town Theme
Standard Tuning (EADGBe)

Arpeggio's used in the Day 3 version of the song:
e|-------------------------------------------------|
B|-------3-----------2-----------0-----------2-----|
G|-----2---2-------2---2-------2---2-------2-----2-|
D|---4-------4---2-------2---2-------2---4-----4---|
A|-5-----------4-----------2-----------4-----------|
E|-------------------------------------------------|

Main Melody:
e|----10-9-7-5-7--3--5--0-5-3-0-3--5-2--|----10-9-7-5-7--3--5-3-0-3--2---------|
B|--------------------------------------|------------------------------3-------|
G|-7------------------------------------|-7------------------------------------|
D|--------------------------------------|--------------------------------------|
A|--------------------------------------|--------------------------------------|
E|--------------------------------------|--------------------------------------|

e|----10-9-7-5-7--3--5--0-5-3-0-3--5-2--|----10-9-7-5-7--3--5-3-0-2-3--0-------|
B|--------------------------------------|--------------------------------3-----|
G|-7------------------------------------|-7------------------------------------|
D|--------------------------------------|--------------------------------------|
A|--------------------------------------|--------------------------------------|
E|--------------------------------------|--------------------------------------|

Second Melody:
e|------------0-------3-2-3-2---0-------|------------0-------3-2-3-2-----------|
B|-3--3-3-2-3----2------------2----2----|-3--3-3-2-3----2------------2--3------|
G|-----------------2-----------------2--|-----------------2--------------------|
D|--------------------------------------|--------------------------------------|
A|--------------------------------------|--------------------------------------|
E|--------------------------------------|--------------------------------------|

e|------------0-------3-2-3-2---0-------|------------0-------3-2-3-2-----------|
B|-3--3-3-2-3----2------------2----2----|-3--3-3-2-3----2------------2--3------|
G|-----------------2-----------------2--|-----------------2--------------------|
D|--------------------------------------|--------------------------------------|
A|--------------------------------------|--------------------------------------|
E|--------------------------------------|--------------------------------------|

Interlude Section (this is only on the Day 1 and 2 versions of the song):
e|--------------------------|--------------------------|
B|--------------------------|--------------------------|
G|--4-----2-----------------|--4-----2-----------------|
D|--------------5-----4-----|------------5--4-----2----|
A|--------------------------|--------------------------|
E|--------------------------|--------------------------|

e|--------------------------|--------------------------|
B|--------------------------|--------------------------|
G|--4-----2-----7-----6-----|--6-------5-------4-------|
D|--------------------------|--------------------------|
A|--------------------------|--------------------------|
E|--------------------------|--------------------------|

Enjoy!
comments
print report bad tab
3 comments total.
+4 reply
metalhead601 wrote on March 30 2012, 11:13 pm

instead of

e|------------0-------3-2-3-2---0-------|
B|-3--3-3-2-3----2------------2----2----|
G|-----------------2-----------------2--|
D|--------------------------------------|
A|--------------------------------------|
E|--------------------------------------|

I think it's

e|------------0-------3-2-3-2---0-------|
B|-3--3-3-2-3----2------------3----2----|
G|-----------------2-----------------2--|
D|--------------------------------------|
A|--------------------------------------|
E|--------------------------------------|

0 reply
DannyMck wrote on May 4 2013, 07:20 am

Great tab, love this theme! xD

0 reply
DakofSteriotic wrote on August 15 2013, 04:43 am

I have always loved this, and this tab really helped out. Especially with the Day 3 Arpeggio. I really only seem to love the Day 3 version... But this was great!

I want to post or [tab]
guest
You may want to rate the tab now too:
select rating
Please do not post tabs as comments. Select "correction" instead!