Oops, an error
Loading. Please wait.

Legend Of Zelda - Hyrule Temple tab

5,467 views 9 this week
2 commentsread comments
1 2 3 4 5
x 4
add to favorites
×
Save as Personal and add changes to this tab that will be seen only by you. Learn more ›
×
You can save this tab as Personal to edit and correct it or add notes. All changes will be seen only by you. Learn more »
launch autoscroll
font size
0
reset
how to read this tab
guitar tuner
edit
Autoscroll
slow
fast
+/-
esc
set tempo
stop
Author
Difficulty
Legend of Zelda Ocarina of Time-Hyrule Temple


Tabbed by:jx99dom
Email:systemofadownxjx1@yahoo.com

Tuning:Standard (E,A,D,G,B,E)


Not all of the song just the main part of it and the intro

E|--5----1-5------5/8-7--------5--------|
B|----3------3-3--------8-6-8----3---6-3|
G|---------------------------------5----|
D|--------------------------------------|
A|--------------------------------------|
E|--------------------------------------|

pretty much all i know for that song figured it out myself one day by accident sounds 
anyways you play it on an amp personally i like it to have a distorted crunch for this one though

            
            
Suggest correction
Creating personal tab
Creating personal tab
You can edit any tab online and save it as your Personal.

You can edit, replace or remove any tab part or add personal notes – all changes will be seen only by you.

Personal tabs can be accessed anytime from any device, even offline.
Learn more »
comments
print report bad tab
2 comments total.
0 reply
WCWA 10 Jul 01, 2011 11:00 AM

What you've tried to post is the music for the Temple of Time. Also, The 3rd 3 on the B string should be an F note (1) on the E string. The 6 on the B string toward the end should be a 5.

0 reply
AcousticRichard 10 Jun 18, 2014 05:41 AM

e--------------------------------------
B--------------------------------------
G-----------------5-4------------------
D-7------7------7-----5--3-5-7---------
A---5--8---5--8----------------5----7-5
E---------------------------------8----'

i think this sounds better :)

guest
You may want to rate the tab now too:
select rating
Wanna post a correction for this tab? Suggest correction