Oops, an error
Loading. Please wait.

Legend Of Zelda - Kakariko Village Tab

version 3
version 3

Whole song

  • ver 3 new
    I dont think there is a tab that goes like this :/.

Interactive

10 views 10 this week
no commentswrite comment
1 2 3 4 5
3 more votes to show rating
add to favorites
launch autoscroll
font size
0
reset
how to read this tab
guitar tuner
Autoscroll
slow
fast
+/-
esc
set tempo
stop
Help us to improve Ultimate-Guitar.com Take our survey!
×
Author
Difficulty
novice
About this tab version
I dont think there is a tab that goes like this :/. Was this info helpful? Yes No
Kakariko Village - Legend of Zelda: Ocarina of Time
this tab only includes the melody part but im sure you can find the comp on some other page ;)
i myself think this sounds somewhat right, only thing i want to change is the 3 in melody 2 and add something
in melody 3 after "2--5--|-3-SOMETHING"

Order played in:
Melody 1
Melody 1
Melody 2

Melody 1
Melody 1
Melody 2
Melody 3
Melody 1:
e|-------------|-------------|-------------|-------------|
B|-------------|-------------|-------------|---6---------|
G|-------------|---3---------|---7-----3---|-------------|
D|---------3---|---------3---|-------------|-------------|
A|-------------|-------------|-------------|-------------|
E|-------------|-------------|-------------|-------------|

Melody 2:
e|-------------|-------------|-------------|-------------|
B|---------6---|--8----------|---8-----6---|-------------|
G|-------------|---------3---|-------------|---7---------|
D|-------------|-------------|-------------|-------------|
A|-------------|-------------|-------------|-------------|
E|-------------|-------------|-------------|-------------|

e|-------------|-------------|-------------|-------------|
B|-------------|-------------|-------------|-------------|
G|----------7--|----------7--|----------5--|----------3--|
D|-------------|-------------|-------------|-------------|
A|-------------|-------------|-------------|-------------|
E|-------------|-------------|-------------|-------------|

Melody 3:
e|-------------|-------------|-------------|-------------|-------------|
B|-------------|-------------|-------------|-------------|-------------|
G|---------3---|-3--------2--|-5---3-------|-------------|-------------|
D|-------------|-------------|----------3--|--1--0--1--3-|0------------|
A|-------------|-------------|-------------|-------------|-------------|
E|-------------|-------------|-------------|-------------|-------------|

e|-------------|-------------|-------------|-------------|
B|-------------|-------------|--------6----|--4--3-------|
G|---------3---|-3----2---5--|-3-----------|--------5--3-|
D|-------------|-------------|-------------|-------------|
A|-------------|-------------|-------------|-------------|
E|-------------|-------------|-------------|-------------|

video ive been playing and listening to: https://www.youtube.com/watch?v=OEDgd5h-GwY
Suggest correction
Give kudos to tab author, rate the tab!
1 2 3 4 5
comments
print report bad tab
guest
You may want to rate the tab now too:
select rating
Wanna post a correction for this tab? Suggest correction