Oops, an error
Loading. Please wait.

Legend Of Zelda - Saria Bass Tab

version 2
version 2

Whole song

Interactive

8,566 views 3 this week
2 commentsread comments
1 2 3 4 5
x 13
add to favorites
launch autoscroll
font size
0
reset
guitar tuner
×
Best way to learn
"Legend Of Zelda - Saria"
Autoscroll
slow
fast
+/-
esc
set tempo
stop
G:|---2-4----2-4----2-4-9-7--3-4-3-------------|
D:|-3------3------3----------------5-2---0-252-|
A:|--------------------------------------------|
E:|--------------------------------------------|

G:|---2-4----2-4----2-4-9-7--3-4-9-3-----9-4-3-|
D:|-3------3------3------------------5------5--|
A:|--------------------------------------------|
E:|--------------------------------------------|

That's all I've been able to get so far. The other part is a little tricky since
the music is a little fast. I think I'll tab out the other songs, too. Just not
in full. Only the part Link actually plays.

- Teej
Suggest correction
comments
print report bad tab
2 comments total.
0 reply
Fuzzle 60 Jul 25, 2008 09:31 AM

Ummm...why not just shift the first bit down a string to 8 on the A string, then 7 on the D string, and 9 on the D string? It saves a lot of useless shifting. I play it that way and it sounds great. While you're at it why not just shift the last bit of the first measure (52-0-252) down a string as well. Don't even have to move the hand that way.

+1 reply
Beato413 278 Jul 13, 2009 01:05 PM

I don't know if my bass is out of tune but it sounds better to me this way. (4-5-4 instead of 3-4-3)

G|---2-4----2-4----2-4-9-7--4-5-4-------------|
D|-3------3------3----------------5-2---0-252-|
A|--------------------------------------------|
E|--------------------------------------------|

guest
You may want to rate the tab now too:
select rating
Wanna post a correction for this tab? Suggest correction