Oops, an error
Loading. Please wait.

Life Force - Stage 2 Volcano tab

version 2
version 2

Whole song

Interactive

31 views 3 this week
no commentswrite comment
1 2 3 4 5
3 more votes to show rating
add to favorites
×
Save as Personal and add changes to this tab that will be seen only by you. Learn more ›
×
You can save this tab as Personal to edit and correct it or add notes. All changes will be seen only by you. Learn more »
launch autoscroll
font size
0
reset
how to read this tab
guitar tuner
edit
Autoscroll
slow
fast
+/-
esc
set tempo
stop
Author
Difficulty
#----------------------------------PLEASE NOTE---------------------------------#
#This file is the author's own work and represents their interpretation of the #
#song. You may only use this file for private study, scholarship, or research. #
#------------------------------------------------------------------------------##


Life Force (NES) - Stage 2

Gtr I (E A D G B E) - 'Sawtooth'
Gtr II (E A D G B E) - 'Squarewave'

  Q=150
  Gtr II
   W                                                 W
|-------------------------------------------------|-------------------------------------------------|
|-------------------------------------------------|-------------------------------------------------|
|--5----------------------------------------------|-------------------------------------------------|
|-------------------------------------------------|--6----------------------------------------------|
|-------------------------------------------------|-------------------------------------------------|
|-------------------------------------------------|-------------------------------------------------|
|
| Gtr I
|  S  S  S  S  S  S  S  S  S  S  S  S  S  S  S  S    S  S  S  S  S  S  S  S  S  S  S  S  S  S  S  S
|----------20----------20----------20----------20-|----------20----------20----------20----------20-|
|-------20----------20----------20----------20----|-------21----------21----------21----------21----|
|----21----------21----------21----------21-------|----20----------20----------20----------20-------|
|-22----------22----------22----------22----------|-22----------22----------22----------22----------|
|-------------------------------------------------|-------------------------------------------------|
|-------------------------------------------------|-------------------------------------------------|


   W                                                 W
|-------------------------------------------------|----------------------------------------------------|
|-------------------------------------------------|----------------------------------------------------|
|-------------------------------------------------|----------------------------------------------------|
|--8----------------------------------------------|--5-------------------------------------------------|
|-------------------------------------------------|----------------------------------------------------|
|-------------------------------------------------|----------------------------------------------------|
|
|  S  S  S  S  S  S  S  S  S  S  S  S  S  S  S  S    S  S  S  S  S  S  S  S  S  S  S  S  S  S  S  S
|----------18----------18----------18----------18-|----------20----------20----------19----------19----|
|-------18----------18----------18----------18----|-------20----------20----------20----------20-------|
|----19----------19----------19----------19-------|----21----------21----------21----------21----------|
|-20----------20----------20----------20----------|-22----------22----------21----------21-------------|
|-------------------------------------------------|----------------------------------------------------|
|-------------------------------------------------|----------------------------------------------------|


    +E   E  +E.        S  S  S  Q.      +E   E  +E.       S  S  S  Q.
||-----------------------------15----|-(15)-----------------------11----|
||o-------------------------13-------|-----------------------9-13-------|
||--------------------10-12----------|-------------------10-------------|
||--(5)-14-(14)----------------------|------13-(13)---------------------|
||o----------------------------------|----------------------------------|
||-----------------------------------|----------------------------------|
|
|    Q      +S   S  S  S  H              Q      +S   S S  S  H
||-----------------------15----------|----------------------11----------|
||o-------------------13-------------|-----------------9-13-------------|
||--------------10-12----------------|--------------10------------------|
||--14-----(14)----------------------|--13-----(13)---------------------|
||o----------------------------------|----------------------------------|
||-----------------------------------|----------------------------------|


   +E   E  +E.        S  S   S  E     +S   E.       E  Q     Q     Q     E
|-(11)----------------------10-13----(13)-11-----|-13-10-------------------|
|-----------------------11-----------------------|----------12-------------|
|--------------------10--------------------------|----------------12----10-|
|------12-(12)-----------------------------------|-------------------------|
|------------------------------------------------|-------------------------|
|------------------------------------------------|-------------------------|
|
|   Q      +S   S  S  S  E.        S  +E       E    Q     Q     Q     Q
|--------------------10-13--------11-(11)-----13-|-10----------------------|
|-----------------11-----------------------------|-------12----------------|
|--------------10--------------------------------|-------------12----10----|
|--12-----(12)-----------------------------------|-------------------------|
|------------------------------------------------|-------------------------|
|------------------------------------------------|-------------------------|


   +E   E  +E.        S  S  S  Q.      +E   E  +E.       S  S  S  Q.
|-----------------------------15----|-(15)-----------------------11----|
|--------------------------13-------|-----------------------9-13-------|
|-(10)---------------10-12----------|-------------------10-------------|
|------14-(14)----------------------|------13-(13)---------------------|
|-----------------------------------|----------------------------------|
|-----------------------------------|----------------------------------|
|
|   Q      +S   S  S  S  H              Q      +S   S S  S  H
|-----------------------15----------|----------------------11----------|
|--------------------13-------------|-----------------9-13-------------|
|--------------10-12----------------|--------------10------------------|
|--14-----(14)----------------------|--13-----(13)---------------------|
|-----------------------------------|----------------------------------|
|-----------------------------------|----------------------------------|


   +E   E  +E.        S  S   S  E     +S   E.       E  Q     Q     Q     E
|-(11)----------------------10-13----(13)-11-----|-13-10--------------------|
|-----------------------11-----------------------|----------12--------------|
|--------------------10--------------------------|----------------12----10--|
|------12-(12)-----------------------------------|--------------------------|
|------------------------------------------------|--------------------------|
|------------------------------------------------|--------------------------|
|
|   Q      +S   S  S  S  E.        S  +E       E    Q     Q     Q     Q
|--------------------10-13--------11-(11)-----13-|-10-----------------------|
|-----------------11-----------------------------|-------12-----------------|
|--------------10--------------------------------|-------------12----10-----|
|--12-----(12)-----------------------------------|--------------------------|
|------------------------------------------------|--------------------------|
|------------------------------------------------|--------------------------|


   E.  S  E  E  E.  S  +E   E    E.  S  E  E  E.  S  +E   E
|-----------------------------|-----------------------------|
|-----------------------------|-----------------------------|
|--------------12-------------|--------------12-------------|
|-13--13-13-15-----15-(15)-13-|-13--13-13-15-----15-(15)-13-|
|-----------------------------|-----------------------------|
|-----------------------------|-----------------------------|
|
|  E.  S  E  E  E.  S  +E   E    E.  S  E  E  E.  S  +E   E
|-----------------------------|-----------------------------|
|-13--13-13-15-16--15-(15)-13-|-----------15-16--15-(15)----|
|-----------------------------|-15--15-15----------------15-|
|-----------------------------|-----------------------------|
|-----------------------------|-----------------------------|
|-----------------------------|-----------------------------|


   E.  S  E  E  E.  S  +E   E    E.  S  E  E  E.  S  +E   E
|-----------------------------|-----------------------------|
|-----------------------------|--------------------------11-|
|--------------12-------------|--------------12--13-(13)----|
|-13--13-13-15-----15-(15)-13-|-13--13-13-15----------------|
|-----------------------------|-----------------------------|
|-----------------------------|-----------------------------|
|
|  E.  S  E  E  E.  S  +E   E    E.  S  E  E  E.  S  +E   E
|-----------------------------|-----------------------------|
|-----------15-16--15-(15)----|-----------15-16--16-(16)-14-|
|-13--13-13----------------13-|-12--12-12-------------------|
|-----------------------------|-----------------------------|
|-----------------------------|-----------------------------|
|-----------------------------|-----------------------------|


   E.  S  E  E  E.  S  +E   E    E.  S  E  E  E.  S  +E   E
|--------------15-------------|--------------15-------------|
|-16--16-16-18-----18-(18)-15-|-16--16-16-18-----18-(18)-15-|
|-----------------------------|-----------------------------|
|-----------------------------|-----------------------------|
|-----------------------------|-----------------------------|
|-----------------------------|-----------------------------|
|
|  E.  S  E  E  E.  S  +E   E    E.  S  E  E  E.  S  +E   E
|-----------------------------|-----------------------------|
|-13--13-13-15-16--15-(15)-13-|-----------15-16--15-(15)----|
|-----------------------------|-15--15-15----------------15-|
|-----------------------------|-----------------------------|
|-----------------------------|-----------------------------|
|-----------------------------|-----------------------------|


   E.  S  E  E  E.  S  +E   E    E.  S  +E   E  +S   E.  Q
|--------------15-------------|---------------------12--15---||
|-16--16-16-18-----18-(18)-15-|-----13-(13)-15-(15)---------o||
|-----------------------------|-12---------------------------||
|-----------------------------|------------------------------||
|-----------------------------|-----------------------------o||
|-----------------------------|------------------------------||
|
|  E.  S  E  E  E.  S  +E   E    E.  S  +E   E  +S   E.  Q
|-----------------------------|-----13-(13)-15-(15)-20--22---||
|-----------15-16--15-(15)-13-|-13--------------------------o||
|-14--14-14-------------------|------------------------------||
|-----------------------------|------------------------------||
|-----------------------------|-----------------------------o||
|-----------------------------|------------------------------||
Suggest correction
Creating personal tab
Creating personal tab
You can edit any tab online and save it as your Personal.

You can edit, replace or remove any tab part or add personal notes – all changes will be seen only by you.

Personal tabs can be accessed anytime from any device, even offline.
Learn more »
Give kudos to tab author, rate the tab!
1 2 3 4 5
comments
print report bad tab
guest
You may want to rate the tab now too:
select rating
Wanna post a correction for this tab? Suggest correction