Oops, an error
Loading. Please wait.

Life Is Strange - End Credits Max And Chloe Acoustic tab

version 2
version 2

Whole song

2,899 views 93 this week
4 commentsread comments
1 2 3 4 5
x 7
add to favorites
×
Save as Personal and add changes to this tab that will be seen only by you. Learn more ›
×
You can save this tab as Personal to edit and correct it or add notes. All changes will be seen only by you. Learn more »
launch autoscroll
font size
0
reset
how to read this tab
guitar tuner
edit
Autoscroll
slow
fast
+/-
esc
set tempo
stop
Author
Guitar 1

[Intro]

e|---------------|---------------|---------------|---------------|
B|----------3----|----------3----|----------3----|----------3----|
G|----2---2---2--|----2---2---2--|----2---2---2--|----2---2---2--|
D|--0---0--------|--0---0--------|--0---0--------|--0--0---------|
A|---------------|---------------|---------------|---------------|
E|---------------|---------------|---------------|---------------| x2


[Part 1]

e|---------------|---------------|---------------|---------------|
B|----------3----|----------3----|----------3----|----------3----|
G|----2---2---2--|----2---2---2--|----2---2---2--|----2---2---2--|
D|--0---0--------|--0---0--------|--0---0--------|--0--0---------|
A|---------------|---------------|---------------|---------------|
E|---------------|---------------|---------------|---------------|

e|---------------|---------------|---------------|---------------|
B|----------0----|----------0----|----------3----|----------3----|
G|----0---0---0--|----0---0---0--|----2---2---2--|----2---2---2--|
D|--0---0--------|--0---0--------|--0---0--------|--0---0--------|
A|---------------|---------------|---------------|---------------|
E|---------------|---------------|---------------|---------------|

e|---------------|---------------|
B|----------3----|----------3----|
G|----2---2---2--|----2---2---2--|
D|--0---0--------|--0---0--------|
A|---------------|---------------|
E|---------------|---------------| x2


[Part 2]

e|---------------|---------------|---------------|---------------|
B|----------0----|----------0----|----------0----|----------0----|
G|----0---0---0--|----0---0---0--|----0---0---0--|----0---0---0--|
D|--0---0--------|--0---0--------|--0---0--------|--0---0---0----|
A|---------------|---------------|---------------|---------------|
E|---------------|---------------|---------------|---------------|

e|---------------|---------------|---------------|---------------|
B|----------3----|----------3----|----------3----|----------3----|
G|----2---2---2--|----2---2---2--|----2---2---2--|----2---2---2--|
D|--0---0--------|--0---0--------|--0---0--------|--0--0---------|
A|---------------|---------------|---------------|---------------|
E|---------------|---------------|---------------|---------------| x2

e|---------------|---------------|----------0----|----------2----|
B|----------0----|----------0----|---------------|---------------|
G|----0---0---0--|----0---0---0--|----0---0---0--|----3---3---3--|
D|--0---0--------|--0---0--------|--2---2--------|--4---4---4----|
A|---------------|---------------|---------------|---------------|
E|---------------|---------------|---------------|---------------|


Guitar 2


[Part 1]

e|------------------------------------------------------------------|
B|------------------------------------------------------------------|
G|--12--11--9h11--11--9s7--7----12--11--14--------------------------|
D|------------------------------------------12--11--12--12s9--9--7--|
A|------------------------------------------------------------------|
E|------------------------------------------------------------------|


[Part 2]

e|--------------------------------------------------------------|
B|--------------------------------------------------------------|
G|--------------------------------------------------------------|
D|--9--12--14--16----7--12--14--16----9--12--14--16--7--(12)----|
A|--------------------------------------------------------------|
E|--------------------------------------------------------------|



************************************

| (n)  Ghost note
| h    Hammer-on
| s    Slide

************************************

            
            
Suggest correction
Creating personal tab
Creating personal tab
You can edit any tab online and save it as your Personal.

You can edit, replace or remove any tab part or add personal notes – all changes will be seen only by you.

Personal tabs can be accessed anytime from any device, even offline.
Learn more »
comments
print report bad tab
4 comments total. Showing first comments.
+2 reply
alexcofc271 73 Nov 02, 2016 01:22 PM

very good thx man

0 reply
fin.gekas 10 Feb 26, 2017 04:37 AM

Very nice. I'm learning to play guitar 2, and I can play it pretty well, but i'm not sure where to play guitar 2's section from 1:16, so to speak. any suggestions?

0 reply
yaidin 295 Sep 10, 2017 10:06 AM

Includes multiple guitars and overal a good tab! Includes all parts i wanted to know i couldn't find in other tabs

guest
You may want to rate the tab now too:
select rating
Wanna post a correction for this tab? Suggest correction