Oops, an error
Loading. Please wait.

Little Nemo The Dream Master - Nightmare Land Boss tab

version 1
version 1

Whole song

Interactive

7 views 1 this week
no commentswrite comment
1 2 3 4 5
3 more votes to show rating
add to favorites
×
Save as Personal and add changes to this tab that will be seen only by you. Learn more ›
×
You can save this tab as Personal to edit and correct it or add notes. All changes will be seen only by you. Learn more »
launch autoscroll
font size
0
reset
how to read this tab
guitar tuner
edit
Autoscroll
slow
fast
+/-
esc
set tempo
stop
Little Nemo the Dream Master - Nightmare Boss Theme

Gtr I (E A D G B E) - 'Squarewave'
Gtr II (E A D G B E) - 'Sawtooth'

     Q=180
     Gtr II
      Q    Q.        E  E  E    Q.        E  +Q      Q
e||--------------------------|----------------------------|
B||o------12--------13-15-13-|-12-------------------12----|
G||--------------------------|----------------------------|
D||--------------------------|-----------14-(14)----------|
A||o-------------------------|----------------------------|
E||--------------------------|----------------------------|
|
 |   Gtr I
 |    E E  E   E  E  E  E  E    E   E  E  E   E   E  E  E
e||--------------------------|----------------------------|
B||o-------------------------|----------------------------|
G||-----9-12--12-12-12-12-12-|-12--12-12-12--12--12-12-12-|
D||--10----------------------|----------------------------|
A||o-------------------------|----------------------------|
E||--------------------------|----------------------------|


    W                        +H.                 Q
e|------------------------|--------------------------|
B|-13---------------------|-(13)---------------------|
G|------------------------|--------------------------|
D|------------------------|--------------------------|
A|------------------------|--------------------------|
E|------------------------|--------------------------|
|
 |  E E  E  E  E  E  E  E     E   E  E  E  E  E  E  E
e|------------------------|---------------15-13----17|
B|------------------------|---------------------17---|
G|----9-12-12-12-12-12-12-|--12--12-12-12------------|
D|-10---------------------|--------------------------|
A|------------------------|--------------------------|
E|------------------------|--------------------------|


    Q    Q.        E  E  E    Q.        E  +Q      Q
e|-------------------------|----------------------------|
B|------12--------13-15-13-|-12-------------------12----|
G|-------------------------|----------------------------|
D|-------------------------|-----------14-(14)----------|
A|-------------------------|----------------------------|
E|-------------------------|----------------------------|
|
 |  E E  E   E  E  E  E  E    E   E  E  E   E   E  E  E
e|-------------------------|----------------------------|
B|-------------------------|----------------------------|
G|----9-12--12-12-12-12-12-|-12--12-12-12--12--12-12-12-|
D|-10----------------------|----------------------------|
A|-------------------------|----------------------------|
E|-------------------------|----------------------------|


    W                        +H.                 Q
e|------------------------|---------------------------|
B|-13---------------------|-(13)----------------------|
G|------------------------|---------------------------|
D|------------------------|---------------------------|
A|------------------------|---------------------------|
E|------------------------|---------------------------|
|
 |  E E  E  E  E  E  E  E     E   E  E  E  E  E  E  E
e|------------------------|---------------------------|
B|------------------------|---------------------------|
G|----9-12-12-12-12-12-12-|--12--12-12-12-12-12-12-12-|
D|-10---------------------|---------------------------|
A|------------------------|---------------------------|
E|------------------------|---------------------------|


    H     +E   E  E  E    +E   Q   Q       Q   E
e|---------------------|------15-----------------|
B|-17----(17)----15-17-|-(17)-----17------15-----|
G|------------17-------|----------------------17-|
D|---------------------|-------------------------|
A|---------------------|-------------------------|
E|---------------------|-------------------------|
|
 |  W                     +H          +E   Q   E
e|---------------------|-------------------------|
B|-10------------------|-(10)--------(10)-10---8-|
G|---------------------|-------------------------|
D|---------------------|-------------------------|
A|---------------------|-------------------------|
E|---------------------|-------------------------|


    H      +E   E  E  E    +E   Q   Q      Q   E
e|----------------------|------------------------|
B|-15-----(15)-------15-|-(15)-17--15------------|
G|-------------16-17----|-----------------17--16-|
D|----------------------|------------------------|
A|----------------------|------------------------|
E|----------------------|------------------------|
|
 | +W                      +H         +E   Q   E
e|----------------------|------------------------|
B|-(8)------------------|--(8)--------(8)--8-----|
G|----------------------|---------------------10-|
D|----------------------|------------------------|
A|----------------------|------------------------|
E|----------------------|------------------------|


    H      +E   E  E  E    Q    E  Q      Q    E    W            H.      Q
e|----------------------|------------------------|-----------|----------------|
B|----------------------|-15---------------------|-----------|----------------|
G|-17-----(17)-14-16-17-|------17-16-------------|-----------|----------------|
D|----------------------|----------------17---14-|-17--------|--17------------|
A|----------------------|------------------------|-----------|----------------|
E|----------------------|------------------------|-----------|----------------|
|
 |  H.             Q       Q.      E +Q     Q       W           +H.      Q
e|----------------------|------------------------|-----------|----------------|
B|----------------------|--8---------------------|-----------|----------------|
G|-10-------------------|----------7-(7)---------|-----------|----------------|
D|----------------------|-------------------9----|-10--------|-(10)-----------|
A|----------------------|------------------------|-----------|----------------|
E|----------------------|------------------------|-----------|----------------|


   Q     Q.       E  E  E    Q.        E  +Q      Q
e|------------------------|----------------------------|
B|------12-------13-15-13-|-12-------------------12----|
G|------------------------|----------------------------|
D|------------------------|-----------14-(14)----------|
A|------------------------|----------------------------|
E|------------------------|----------------------------|
|
 | E  E  E   E E  E  E  E    E   E  E  E   E   E  E  E
e|------------------------|-----------12---------12-17-|
B|---------------10----10-|-13--10-13-----10--13-------|
G|-------9-----9-----9----|----------------------------|
D|-7-10-----10------------|----------------------------|
A|------------------------|----------------------------|
E|------------------------|----------------------------|


    W                         +H.                 Q
e|-------------------------|---------------------------|
B|-13----------------------|-(13)----------------------|
G|-------------------------|---------------------------|
D|-------------------------|---------------------------|
A|-------------------------|---------------------------|
E|-------------------------|---------------------------|
|
 |  E  E  E  E  E  E  E  E     E   E  E  E  E  E  E  E
e|-17-15-13-13-13-13-13-12-|--10--10-10-10-10----------|
B|-------------------------|------------------13-12-10-|
G|-------------------------|---------------------------|
D|-------------------------|---------------------------|
A|-------------------------|---------------------------|
E|-------------------------|---------------------------|


   Q     Q.       E  E  E    Q.        E  +Q      Q
e|------------------------|----------------------------|
B|------12-------13-15-13-|-12-------------------12----|
G|------------------------|----------------------------|
D|------------------------|-----------14-(14)----------|
A|------------------------|----------------------------|
E|------------------------|----------------------------|
|
 | E  E  E   E E  E  E  E    E   E  E  E   E   E  E  E
e|------------------------|-----------12---------12-17-|
B|---------------10----10-|-13--10-13-----10--13-------|
G|-------9-----9-----9----|----------------------------|
D|-7-10-----10------------|----------------------------|
A|------------------------|----------------------------|
E|------------------------|----------------------------|


    W                         +H.                 Q
e|-------------------------|---------------------------|
B|-13----------------------|-(13)----------------------|
G|-------------------------|---------------------------|
D|-------------------------|---------------------------|
A|-------------------------|---------------------------|
E|-------------------------|---------------------------|
|
 |  E  E  E  E  E  E  E  E     E   E  E  E  E  E  E  E
e|-18-18-18----------------|---------------------------|
B|----------18-18-18-15-15-|--15-----------------------|
G|-------------------------|------15-15-15-------------|
D|-------------------------|---------------15-15-15-15-|
A|-------------------------|---------------------------|
E|-------------------------|---------------------------|


    H     +E   E  E  E    +E   Q   Q   Q   E
e|---------------------|------15-------------|
B|-17----(17)----15-17-|-(17)-----17--15-----|
G|------------17-------|------------------17-|
D|---------------------|---------------------|
A|---------------------|---------------------|
E|---------------------|---------------------|
|
 |  H     +E   E  E  E    +E   Q   Q   Q   E
e|---------------------|---------------------|
B|---------------------|------17-------------|
G|-17----(17)-14-16-17-|-(17)-----17--16--14-|
D|---------------------|---------------------|
A|---------------------|---------------------|
E|---------------------|---------------------|


    H     +E   E  E  E    +E   Q   Q   Q   E
e|---------------------|---------------------|
B|-15----(15)-------15-|-(15)-17--15---------|
G|------------16-17----|--------------17--16-|
D|---------------------|---------------------|
A|---------------------|---------------------|
E|---------------------|---------------------|
|
 |  H     +E   E  E  E    +E   Q   Q   Q   E
e|---------------------|---------------------|
B|---------------------|---------------------|
G|-16----(16)----14-16-|-(16)-17--16--14-----|
D|------------17-------|------------------17-|
A|---------------------|---------------------|
E|---------------------|---------------------|


    H           +E   E  E  E    Q   E  Q   Q   E    W           +H.      Q
e|---------------------------|-------------------|-----------|--------------|
B|---------------------------|-15----------------|-----------|--------------|
G|-17----------(17)-14-16-17-|-----17-16---------|-----------|--------------|
D|---------------------------|------------17--14-|-17--------|-(17)---------|
A|---------------------------|-------------------|-----------|--------------|
E|---------------------------|-------------------|-----------|--------------|
|
 |  E  E  E  E   E   E  E  E    Q   E  Q   Q   E    W           +H.      Q
e|---------------------------|-------------------|-----------|--------------|
B|---------------------------|-------------------|-----------|--------------|
G|-14-------14--17--------14-|-16--14------------|-----------|--------------|
D|-------15---------15-17----|--------17--15-----|-----------|--------------|
A|----15---------------------|----------------17-|-15--------|-(15)---------|
E|---------------------------|-------------------|-----------|--------------|


    Q     Q     Q     Q       Q     Q     Q     Q
e|-------------------------|-------------------------|
B|-------------13----------|-12----------------------|
G|-------------------------|-------------14----------|
D|-14----------------------|-------------------------|
A|-------------------------|-------------------------|
E|-------------------------|-------------------------|
|
 |  E  E  E  E  E  E  E  E    E  E  E  E  E  E  E  E
e|-17-15-13----------------|-------------------------|
B|----------13-------------|-------------------------|
G|-------------14-12-------|-------------------------|
D|-------------------15----|-------------------------|
A|----------------------15-|-12----------------------|
E|-------------------------|----15-13-13-13-13-13-13-|


    H       +E   Q     E    +H.              Q
e|-----------------------|----------------------|
B|--------------------12-|-(12)-----------------|
G|-12------(12)-14-------|----------------------|
D|-----------------------|----------------------|
A|-----------------------|----------------------|
E|-----------------------|----------------------|
|
 |  Q   Q    E   E  E  E    +E   Q   E  +H
e|-----------------------|------15--------------|
B|-----15---15--12-13-15-|-(15)-----15-(15)-----|
G|-----------------------|----------------------|
D|-----------------------|----------------------|
A|-----------------------|----------------------|
E|-----------------------|----------------------|


    Q     Q     Q     Q       Q     Q     Q     Q
e|-------------------------|-------------------------|
B|-------------15----------|-13----------12----------|
G|-------------------------|-------------------14----|
D|-15----------------------|-------------------------|
A|-------------------------|-------------------------|
E|-------------------------|-------------------------|
|
 |  E  E  E  E  E  E  E  E    E  E  E  E  E  E  E  E
e|-20-19-17----------------|-------------------------|
B|----------17-------------|-------------------------|
G|-------------17-16-14----|----------------------14-|
D|----------------------14-|-------------------14----|
A|-------------------------|-15-14-12----12-15-------|
E|-------------------------|----------13-------------|


    H     +E   Q   E    +H.      Q
e|-------------------|--------------|
B|-12----(12)-13--15-|-(15)---------|
G|-------------------|--------------|
D|-------------------|--------------|
A|-------------------|--------------|
E|-------------------|--------------|
|
 |  H     +E   Q   E     H.      Q
e|-------------------|--------------|
B|----------------12-|--12----------|
G|-13----(13)-14-----|--------------|
D|-------------------|--------------|
A|-------------------|--------------|
E|-------------------|--------------|


    H     +E   E  E  E    +E   E  Q   E  Q   E
e|---------------------|-----------------------|
B|-17----(17)----17-18-|-(18)-18-17------------|
G|------------17-------|-------------19-17--19-|
D|---------------------|-----------------------|
A|---------------------|-----------------------|
E|---------------------|-----------------------|
|
 |  H     +E   E  E  E    +E   E  Q   E  Q   E
e|---------------------|-----------------------|
B|-13----(13)----13-15-|-(15)-15-13--12-----12-|
G|------------14-------|----------------14-----|
D|---------------------|-----------------------|
A|---------------------|-----------------------|
E|---------------------|-----------------------|


    +H      +E   E  E  E    +E   E  Q   E  Q.
e|-----------------------|----------------------|
B|--------------------17-|-(17)-17--------------|
G|-(19)----(19)-16-17----|---------19--17-16----|
D|-----------------------|----------------------|
A|-----------------------|----------------------|
E|-----------------------|----------------------|
|
 |  +H      +E   E  E  E    +E   E  Q   E  Q.
e|-----------------------|----------------------|
B|-(12)----(12)----12-13-|-(13)-13-12-----------|
G|--------------13-------|-------------14-13----|
D|-----------------------|----------------------|
A|-----------------------|----------------------|
E|-----------------------|----------------------|


    H           +E   E  E  E    +E   E  Q     E  Q.
e|---------------------------|----------------------------|
B|-17----------(17)----17-18-|-(18)-18-17-----------------|
G|------------------17-------|---------------19-17--------|
D|---------------------------|----------------------------|
A|---------------------------|----------------------------|
E|---------------------------|----------------------------|
|
 |  E  E  E  E   E   E  E  E     E   E  E  E  E  E   E  E
e|---------------------------|----------------------------|
B|-13-12-10------------------|---------------10-12--13-10-|
G|----------12--10---9-------|-------9-10-----------------|
D|---------------------12-10-|--12--------12--------------|
A|---------------------------|----------------------------|
E|---------------------------|----------------------------|


   |--3--|  |--3--|
   Q  Q  Q  Q  Q  Q    W
e|----17-15----------|------------||
B|----------17-15----|-----------o||
G|----------------17-|-14---------||
D|-------------------|------------||
A|-------------------|-----------o||
E|-------------------|------------||
|
|  |--3--|  |--3--|
|  Q  Q  Q  Q  Q  Q    Q   H.
e|----12-10----------|------------||
B|-12-------12-------|-----------o||
G|-------------12----|------------||
D|----------------12-|-12--11-----||
A|-------------------|-----------o||
E|-------------------|------------||



************************************

| (n)  Ghost note 

************************************
Suggest correction
Creating personal tab
Creating personal tab
You can edit any tab online and save it as your Personal.

You can edit, replace or remove any tab part or add personal notes – all changes will be seen only by you.

Personal tabs can be accessed anytime from any device, even offline.
Learn more »
Give kudos to tab author, rate the tab!
1 2 3 4 5
comments
print report bad tab
guest
You may want to rate the tab now too:
select rating
Wanna post a correction for this tab? Suggest correction