Oops, an error
Loading. Please wait.

Mario Kart Ds Single - Player Theme Tab

19 views 1 this week
no commentswrite comment
1 2 3 4 5
3 more votes to show rating
add to favorites
launch autoscroll
font size
0
reset
how to read this tab
guitar tuner
Autoscroll
slow
fast
+/-
esc
set tempo
stop
Help us to improve Ultimate-Guitar.com Take our survey!
×
Author
Difficulty
intermediate
About this tab version
Displays the chords, and the main melody of the soundtrack. Was this info helpful? Yes No
[MAIN THEME]
 
PT.1     
e|------------12-------------------------------10--13--10---------------------------------------|
B|----------12-----5--7----7--8---(8)---10--13--------------------------------------------------|
G|--------12------5-------7-------------10------------------------------------------------------|
D|------14-------5-------7--------(5)---10------------------------------------------------------|
A|----15----------------------------------------------------------------------------------------|
E|----------------------------------------------------------------------------------------------|

e|--------12h15---------------------------------------------------------------------------------|
B|------13------12h13-----------5--8--------8-(8)--11--10--11--10-------------------------------|
G|----12------- 12-----12--9----7--9----5----------12--------------12--9--12--------------------|
D|--------------------------------------5-------------------------------------10----------------|
A|----------------------------------------------------------------------------------------------|
E|----------------------------------------------------------------------------------------------|

PT.3
e|----------17-------5--6--------5h6p5----------------------------------------------------------|
B|--------17------6---------8-----------6----6--------------------------------------------------|
G|------17-----5---------------------------5------8----7--8--7--8--7----------------------------|
D|----17----------------------------------------------------------------------------------------|
A|----------------------------------------------------------------------------------------------|
E|----------------------------------------------------------------------------------------------|

e|-------------15---12----12--13--15--11/12-------------10------12------------------------------|
B|-------------13---13----------------12/13----13--13---10------13------4--6--8--6----4---------|
G|-------------12---12----------------------------------10-(10)-12-----------------------3--5---|
D|----10--10------------------------------------------------------------------------------------|
A|----------------------------------------------------------------------------------------------|
E|----------------------------------------------------------------------------------------------|

[CHORDS]

(THEME PT.1) Cmaj7|D|D#|F 

(THEME PT.3) F|D#|F|D#

(BREAKDOWN) D|C|Bb|C|D|C|G|C

e|--------------------------------|
B|-----5-----7-----8-----10-------|
G|-----4-----7-----8-----10-------|
D|-----5-----7-----8-----10-------|
A|-----3-----5-----6-----8--------|
E|--------------------------------|

e|--------------------------------|
B|-----10----8-----10----8--------|
G|-----10----8-----10----8--------|
D|-----10----8-----10----8--------|
A|-----8-----6-----8-----6--------|
E|--------------------------------|

e|------------------------------------------------------|
B|-----7-----5-----3-----5-----7-----5-----8-----5------|
G|-----7-----5-----3-----5-----7-----5-----7-----5------|
D|-----7-----5-----3-----5-----7-----5-----5-----5------|
A|------------------------------------------------------|
E|------------------------------------------------------|


************************************

| (n)  Ghost note
| h    Hammer-on
| p    Pull-off
| \    Slide down

************************************
Suggest correction
Give kudos to tab author, rate the tab!
1 2 3 4 5
comments
print report bad tab
guest
You may want to rate the tab now too:
select rating
Wanna post a correction for this tab? Suggest correction