Oops, an error
Loading. Please wait.

Mario Theme Tab

version 1
version 1

Whole song

  • This version is very accurate to the vintage Mario theme.
90,071 views 189 this week
6 commentsread comments
1 2 3 4 5
x 97
add to favorites
launch autoscroll
font size
0
reset
how to read this tab
guitar tuner
Autoscroll
slow
fast
+/-
esc
set tempo
stop
Help us to improve Ultimate-Guitar.com Take our survey!
×
Author
                   __________Repeat 2x________________
E|--0-0-0---0-3---|----------------0--3-5-1-3-0-------|
B|--------1-------|1-------0---------------------1-3-0|
G|--------------0-|--0---2---3-2-0--------------------|
D|----------------|----2------------------------------|
A|----------------|-----------------------------------|
E|----------------|-----------------------------------|

E|--3-2-1---0---------------3-2-1----0----8-8-8-----|
B|--------4-------1--1-3-----------4----------------|
G|-------------1-2-2--------------------------------|
D|--------------------------------------------------|
A|--------------------------------------------------|
E|--------------------------------------------------|

E|--3-2-1---0-------------------|-------------0-----|
B|--------4-------1---1-3-4-3-1-|--1-1-1-1--3---1---|
G|------------1-2---2-----------|----------------2-0|
D|------------------------------|-------------------|
A|------------------------------|-------------------|
E|------------------------------|-------------------|

E|------------0----------------0---------0-0-0--0-3-|
B|--1-1-1-1-3-------1-1-1-1-3----1------------1-----|
G|----------------------------------2-0-------------|
D|--------------------------------------------------|
A|--------------------------------------------------|
E|--------------------------------------------------|

E|--0-----------1-1----------5-5-5-3-1-0------------|
B|----1--------------0----1---------------1---------|
G|------0---1-2------------------------------2-0----|
D|--------------------------------------------------|
A|--------------------------------------------------|
E|--------------------------------------------------|

E|--0-----------1-1----------1-1-1-1-0--------------|
B|----1--------------0----1--------------3-1--------|
G|------0---1-2-------------------------------------|
D|--------------------------------------------------|
A|--------------------------------------------------|
E|--------------------------------------------------|

After the end you can repeat it over and over again as much as you want.
Suggest correction
comments
print report bad tab
6 comments total. Showing first comments.
0 reply
psyne 10 Mar 11, 2013 12:24 PM

This is good overall but on both of the last two parts it should be like this:

E|--0-----------1-1------------
B|----1-------------------0*---
G|------0---1-2------2*--------
D|-----------------------------
A|-----------------------------
E|-----------------------------

(starred the notes I changed)

0 reply
robinveeninge 10 May 19, 2013 12:20 PM

E|--3-2-1---0---------------3-2-1----0----8-8-8--0--|
B|--------4-------1--1-3-----------4----------------|
G|-------------1-2-2--------------------------------|
D|--------------------------------------------------|
A|--------------------------------------------------|
E|--------------------------------------------------|

This sounds better to me, adding in the extra note on the 2nd tab.

+1 reply
1600704 10 Jun 10, 2013 01:54 PM

this is awsome

guest
You may want to rate the tab now too:
select rating
Wanna post a correction for this tab? Suggest correction