Oops, an error
Loading. Please wait.

Mass Effect 3 - I Was Lost Without You tab

version 1
version 1

Whole song

Interactive

15,636 views 27 this week
2 commentsread comments
1 2 3 4 5
x 12
add to favorites
×
Save as Personal and add changes to this tab that will be seen only by you. Learn more ›
×
You can save this tab as Personal to edit and correct it or add notes. All changes will be seen only by you. Learn more »
launch autoscroll
font size
0
reset
how to read this tab
guitar tuner
edit
Autoscroll
slow
fast
+/-
esc
set tempo
stop
#----------------------------------PLEASE NOTE----------------------------------#
# This file is the author's own work and represents their interpretation of the #
# song. You may only use this file for private study, scholarship, or research. #
#-------------------------------------------------------------------------------#

Song: I Was Lost Without You
Artist: Sam Hulick
Album: Mass Effect 3 Soundtrack
Tabbed by: guitarist69r
Email: guitarist69r@outlook.com

Tuning: D G C F A d (Tune down 1 step)

*Youtube Song Link: http://adf.ly/1692170/www.youtube.com/watch?v=OQeFvUuPNHc

**Guitar Pro version: 
tabs.ultimate-guitar.com/m/misc_computer_games/mass_effect_3_-_i_was_lost_without_you_ver3_guitar_pro.htm
This also includes simplified chord structure (bars 8 - 10) and a new alternative outro (bars 11 - 15)**

Q=50
8/4 = Time Signature
LR - Let Ring throughout entire song
  1                                          2
d |--0---------0---------0---------0---------|--0-------2--3----5--3--2-----0-----------0-------|
A |--0----0----0----1----0----0----0----1----|--0----0-----1----5-----3-----0--3--2-------------|
F |-------0---------0---------0---------0----|-------0-----0----5-----4-----------2-----2-------|
C |------------------------------------------|------------------5-----------4-----------2-------|
G |------------3-------------------3---------|-------------3----------2-----------0-------------|
D |--0-------------------0-------------------|--0-----------------------------------------------|

 3                                                    4
 |--0--------2--0-----------0--2--0--2--3-----5-------|--7-----------7-----------------------0------|
 |--0-----0-----0-----1-----0-----0-----0-------------|--------5-----------5-----3-----0--3--0---0--|
 |--------0-----------0-------------------------------|--------6-----------5-----2---------------0--|
 |--------------------------2-----------------4-------|--------------------------0--------0---------|
 |--------------3-----3-----------------2-----5-------|--0-----4-----3-----------------2------------|
 |--0-------------------------------------------------|--------------------------------------0------|

 5                                                    6                                
 |--0-----------0--------2--0-----2--3--3--5--3--2----|--0---------0---------0---------3----5--|
 |--0-----1-----0-----0-----1-----0-----0-----0-------|--2---------0----0----0----0----0-------|
 |--------0-----------0-------------------------------|--2----2---------0---------0----0-------|
 |--------------------------------2-----------0-------|-------2------------------------2-------|
 |--3-----------------------3-----------2-------------|--0-------------------------------------|
 |--------------0-------------------------------------|------------0---------0-----------------|

 7                                           8              ^           
 |--3----5----2---------------0----3----5----|--3-----5-----2--0--2-------------------3--2--3--0--|
 |--1---------3----3----2----------0---------|--1-----------3--------3--2--0--2-------------0--5--|
 |--0---------4---------2----------0---------|--0-----------4-----------2--------2-------0--------|
 |--2---------4---------2----------2---------|--2-----------4-----------2-------------2-----------|
 |--3---------2---------0--------------------|--3-----------2-----------0-------------------------|
 |-------------------------------------------|----------------------------------------------------|

 9                                                 10
 |--3--2--3--0-----------------------0--3--2--3--5-|-7-----------9--7--9--5--3--2--3--0-------|
 |-----------1--3--2--3--0--2--0--2--2--------0--5-|-------7--------------------------1--3----|
 |--------0--------------4--------2--------0-------|----------4-----------2--------0-----4----|
 |-----2-----------0--4--------2--------2----------|-------4--------------------2--------4----|
 |--3-----------2-----------0----------------------|----5-----------4--7-----3-----------2----|
 |-------------------------------------------------|-7-----------5----------------------------|

 11                      ^
 |----0--------2----3----5----7-------0----------7--|
 |----2--------3---------2----0-------0-------------|
 |----2--------4---------2-------7----9-------------|
 |-------------4---------2--------------------------|
 |----0--------2---------0--------------------------|
 |------------------------------------0-------------|

 12
 |------7--------9--10-9h10p9p7--------7-----------0----7----7--|
 |--10-----------------------------10--------------0------------|
 |-------------------------------------------------9------------|
 |--------------------------------------------------------------|
 |--------------------------------------------------------------|
 |---------------------7---------------------------0------------|

12/4
 13                                                         ^
 |------7--------9--10-9h10p9p7----------7-----------------------5----5-------5---------------------------|
 |--10-------------------------------10-----------5----7----5--------------5------2----3----5----3p2p0----|
 |-------------------------------------------7--------------6---------------------------------------------|
 |----------------------------------------------------------7---------------------------------------------|
 |----------------------------------------------------------7---------------------------------------------|
 |--------------------7-------------------------------------5------------------------------------3--------|

10/4                                                                  8/4
 14                                   ^           ^           ^       15
 |------------------------------------0-----2-----3-----5-----7-------|--------|
 |---------0----2----3----2-----3-----0-----------1-----------7-------|--------|
 |--2/4--------------4----2-----------0-----------0-----------7-------|--------|
 |------------------------2-----------2-----------2-----------9-------|--------|
 |------------------------0-----------2-----------3-----------9-------|--------|
 |---------3--------------------------0-----------------------7-------|--------|

Enjoy, and please don't forget to rate and comment!

Thanks :D

************************************

| ^   brush down stroke
| /   slide up
| h   hammer-on
| p   pull-off
| LR  let ring

************************************

            
            
Suggest correction
Creating personal tab
Creating personal tab
You can edit any tab online and save it as your Personal.

You can edit, replace or remove any tab part or add personal notes – all changes will be seen only by you.

Personal tabs can be accessed anytime from any device, even offline.
Learn more »
comments
print report bad tab
2 comments total.
+1 reply
LotusRevolution 981 Apr 15, 2016 05:17 PM

This is a great tab. Thank you for this.

guest
You may want to rate the tab now too:
select rating
Wanna post a correction for this tab? Suggest correction