Oops, an error
Loading. Please wait.

Max Payne Theme Tab

version 4
version 4

Whole song

Interactive

60,038 views 189 this week
8 commentsread comments
1 2 3 4 5
x 28
add to favorites
launch autoscroll
font size
0
reset
how to read this tab
guitar tuner
×
Best way to learn
"Max Payne Theme"
Autoscroll
slow
fast
+/-
esc
set tempo
stop
Author
Difficulty
Tuning
  follow
novice
E A D G B E
I used the piano notes from the Remedy forum.


[Part 1]

e|----------8-------6----------------------------------------------|
B|----6--8------8-------8------------------------------------------|
G|5-8---------------------8--4-------------7-------7---8---4---5---|
D|-----------------------------------6--5------5-------------------|
A|-----------------------------------------------------------------|
E|-----------------------------------------------------------------|

e|----------8-------6--------------------------------------|
B|----6--8------8-------8----------------------------------|
G|-8----------------------8--4-------------7-------7---8---|
D|-------------------------------------6-5-----5-----------|
A|---------------------------------------------------------|
E|---------------------------------------------------------|

e|------------------------------------------------------------------------|
B|--------3-0---4-3---------3-0---3-4---------3-0---4-3---------3-0---4-3-|
G|----0-1-----0---------0-1-----0---------0-1-----0---------0-1-----0-----|
D|3-3---------------3-3---------------3-3---------------3-3---------------|
A|------------------------------------------------------------------------|
E|------------------------------------------------------------------------|

e|-----------------|
B|--------3-1-0---0|
G|----0-1-------2--|
D|3-3--------------|
A|-----------------|
E|-----------------|


[Part 2]
(Now everything an octave higher, ending on a C)

e|------------------------------------------------------|
B|------------15-12----16-15-------------15-12----15-16-|
G|------12-13-------12-------------12-13-------12-------|
D|15-15----------------------15-15----------------------|
A|------------------------------------------------------|
E|------------------------------------------------------|

e|------------------------------------------------------|
B|------------15-12----16-15-------------15-12----16-15-|
G|------12-13-------12-------------12-13-------12-------|
D|15-15----------------------15-15----------------------|
A|------------------------------------------------------|
E|------------------------------------------------------|

e|--------------------------|
B|------------15-13-12----13|
G|------12-13----------14---|
D|15-15---------------------|
A|--------------------------|
E|--------------------------|
Suggest correction
comments
print report bad tab
8 comments total. Showing first comments.
+1 reply
The_Beginner 440 Apr 13, 2007 08:59 AM

Best tab! =)
great work man!

+1 reply
Sputte 10 Apr 26, 2007 01:38 PM

Wonderful!

+1 reply
Gwipo 10 Oct 09, 2007 08:24 AM

Sounds good. =)

guest
You may want to rate the tab now too:
select rating
Wanna post a correction for this tab? Suggest correction