Oops, an error
Loading. Please wait.

Mega Man 3 - Boss Theme Bass Tab

version 1
version 1

Whole song

  • There is no plain bass tab for this song.

Interactive

4 views 1 this week
no commentswrite comment
1 2 3 4 5
3 more votes to show rating
add to favorites
launch autoscroll
font size
0
reset
guitar tuner
Autoscroll
slow
fast
+/-
esc
set tempo
stop
Help us to improve Ultimate-Guitar.com Take our survey!
×
Author
Difficulty
About this tab version
There is no plain bass tab for this song. Was this info helpful? Yes No
#----------------------------------PLEASE NOTE---------------------------------#
#This file is the author's own work and represents their interpretation of the #
#song. You may only use this file for private study, scholarship, or research. #
#------------------------------------------------------------------------------##

Megaman 3 (NES) - Boss Theme...on bass!!!

Gtr I (B E A D G) 

  Q=160
  Gtr I
  W          W          W          W
G|----------|----------|----------|------|
D|----------|----------|----------|------|
A|----------|----------|----------|------|
E|----------|-6--------|-5--------|------|
B|-4--------|----------|----------|-6----|


    S E S E S S +S  S E S S E   S E S E S S +S  S E S S E
||----------------------------|-----------------------------|
||o---------------------------|-----------------------------|
||----------------------------|-----------------------------|
||o---------------------------|-----------------------------|
||--4-4-5-5-6-6-(6)-5-5-4-5-6-|-4-4-5-5-6-6-(6)-5-5-4-5-6---|


  E E E Q  E E E   E E E Q  E E E   E E E Q  E E E   E E E Q  E E E
|----------------|----------------|----------------|----------------|
|----------------|----------------|----------------|----------------|
|----------------|----------------|----------------|----------------|
|----------------|----------------|----------------|----------------|
|-4-4-2-4--4-2-4-|-4-4-2-4--4-2-4-|-4-4-2-4--4-2-4-|-4-4-2-4--4-2-4-|


  E E E Q  E E E   E E E Q  E E E   E E E Q  E E E   E E E Q  E E E
|----------------|----------------|----------------|----------------|
|----------------|----------------|----------------|----------------|
|----------------|----------------|----------------|----------------|
|----------------|----------------|----------------|----------------|
|-4-4-2-4--4-2-4-|-4-4-2-4--4-2-4-|-4-4-2-4--4-2-4-|-4-4-2-4--4-2-4-|


  E E E Q  E E E   E E E Q  E E E   E E E Q  E E E   E E E Q  E E E
|----------------|----------------|----------------|----------------|
|----------------|----------------|----------------|----------------|
|----------------|----------------|----------------|----------------|
|-4-4-2-4--4-2-4-|-4-4-2-4--4-2-4-|-4-4-2-4--4-2-4-|-4-4-2-4--4-2-4-|
|----------------|----------------|----------------|----------------|


  E E E Q  E E E   E E E Q  E E E   E E E Q  E E E   E E E Q  E E E
|----------------|----------------|----------------|-----------------||
|----------------|----------------|----------------|----------------o||
|----------------|----------------|----------------|-----------------||
|-4-4-2-4--4-2-4-|-4-4-2-4--4-2-4-|-4-4-2-4--4-2-4-|-4-4-2-4--4-2-4-o||
|----------------|----------------|----------------|-----------------||


Suggest correction
Give kudos to tab author, rate the tab!
1 2 3 4 5
comments
print report bad tab
guest
You may want to rate the tab now too:
select rating
Wanna post a correction for this tab? Suggest correction