Oops, an error
Loading. Please wait.

Mega Man 3 - Boss Theme Tab

version 1
version 1

Whole song

  • There is no plain tab of this song.

Interactive

10 views 3 this week
no commentswrite comment
1 2 3 4 5
3 more votes to show rating
add to favorites
launch autoscroll
font size
0
reset
how to read this tab
guitar tuner
Autoscroll
slow
fast
+/-
esc
set tempo
stop
Help us to improve Ultimate-Guitar.com Take our survey!
×
Author
Difficulty
intermediate
About this tab version
There is no plain tab of this song. Was this info helpful? Yes No
#----------------------------------PLEASE NOTE---------------------------------#
#This file is the author's own work and represents their interpretation of the #
#song. You may only use this file for private study, scholarship, or research. #
#------------------------------------------------------------------------------##

Megaman 3 (NES) - Boss Theme

Gtr I (E A D G B E) - 'Squarewave'
Gtr II (E A D G B E) - 'Sawtooth'

  Q=160
  Gtr I
   W                                                 W
|-------------------------------------------------|-------------------------------------------------|
|-------------------------------------------------|-11----------------------------------------------|
|--8----------------------------------------------|-------------------------------------------------|
|-------------------------------------------------|-------------------------------------------------|
|-------------------------------------------------|-------------------------------------------------|
|-------------------------------------------------|-------------------------------------------------|
|
| Gtr II
|  S  S  S  S  S  S  S  S  S  S  S  S  S  S  S  S    S  S  S  S  S  S  S  S  S  S  S  S  S  S  S  S
|-11-12-11-10-11-12-11-10-11-12-11-10-11-12-11-10-|-11-12-11-10-11-12-11-10-11-12-11-10-11-12-11-10-|
|-------------------------------------------------|-------------------------------------------------|
|-------------------------------------------------|-------------------------------------------------|
|-------------------------------------------------|-------------------------------------------------|
|-------------------------------------------------|-------------------------------------------------|
|-------------------------------------------------|-------------------------------------------------|


   W                                                 W
|-------------------------------------------------|----------------------------------------------------|
|-10----------------------------------------------|----------------------------------------------------|
|-------------------------------------------------|-10-------------------------------------------------|
|-------------------------------------------------|----------------------------------------------------|
|-------------------------------------------------|----------------------------------------------------|
|-------------------------------------------------|----------------------------------------------------|
|
|  S  S  S  S  S  S  S  S  S  S  S  S  S  S  S  S    S  S  S  S  S  S  S  S  S  S  S  S  S  S  S  S
|-11-12-11-10-11-12-11-10-11-12-11-10-11-12-11-10-|-11-12-11-10-11-12-11-10-11-12-11-10-11-12-11-10----|
|-------------------------------------------------|----------------------------------------------------|
|-------------------------------------------------|----------------------------------------------------|
|-------------------------------------------------|----------------------------------------------------|
|-------------------------------------------------|----------------------------------------------------|
|-------------------------------------------------|----------------------------------------------------|


     S  E  S  E  S  S  +S   S  E  S  S  E
||----------------------------------------|
||o--9--9-10-10-11-11-(11)-10-10--9-10-11-|
||----------------------------------------|
||----------------------------------------|
||o---------------------------------------|
||----------------------------------------|
|
|    S  E  S  E  S  S  +S   S  E  S  S  E
||--10-10-11-11-12-12-(12)-11-11-10-11-12-|
||o---------------------------------------|
||----------------------------------------|
||----------------------------------------|
||o---------------------------------------|
||----------------------------------------|


   S  E  S  E  S  S  +S   S  E  S  S  E
|--------------------------------------|
|--9--9-10-10-11-11-(11)-10-10--9-10-11|
|--------------------------------------|
|--------------------------------------|
|--------------------------------------|
|--------------------------------------|
|
|  S  E  S  E  S  S  +S   S  E  S  S  E
|-10-10-11-11-12-12-(12)-11-11-10-11-12|
|--------------------------------------|
|--------------------------------------|
|--------------------------------------|
|--------------------------------------|
|--------------------------------------|


   ~~~                   ~~~~
   H.           E  E    +H.            E  E
|--------------------|----------------------|
|-11--------------10-|-(10)-----------11-10-|
|---------------8----|----------------------|
|--------------------|----------------------|
|--------------------|----------------------|
|--------------------|----------------------|
|
|  E  E E E E E E  E    +E  E E E E E  E  E
|--------------------|----------------------|
|--------------------|----------------------|
|--------------------|----------------------|
|--------------------|----------------------|
|-----6-8---8-9-6----|------6-8---8-9--6----|
|---------6--------6-|--(6)-----6---------6-|


   ~~~                   ~~~~
   H.           E  E    +W
|--------------------|--------------------|
|--9-----------------|--------------------|
|---------------8-11-|-(11)---------------|
|--------------------|--------------------|
|--------------------|--------------------|
|--------------------|--------------------|
|
| +E  E E E E E E  E    +E  E E E E E E E
|--------------------|--------------------|
|--------------------|--------------------|
|--------------------|--------------------|
|--------------------|--------------------|
|-----6-8---8-9-6----|------6-8---8-9-6---|
|-(6)-----6--------6-|--(6)-----6-------6-|


   ~~~                   ~~~~
   H.           E  E    +H.            E  E
|--------------------|----------------------|
|-11--------------10-|-(10)-----------11-10-|
|---------------8----|----------------------|
|--------------------|----------------------|
|--------------------|----------------------|
|--------------------|----------------------|
|
| +E  E E E E E E  E    +E  E E E E E  E  E
|--------------------|----------------------|
|--------------------|----------------------|
|--------------------|----------------------|
|--------------------|----------------------|
|-----6-8---8-9-6----|------6-8---8-9--6----|
|-(6)-----6--------6-|--(6)-----6---------6-|


   ~~~                   ~~~~
   H.           E  E    +W
|--------------------|--------------------|
|--9-----------------|--------------------|
|---------------8-11-|-(11)---------------|
|--------------------|--------------------|
|--------------------|--------------------|
|--------------------|--------------------|
|
| +E  E E E E E E  E    +E  E E E E E E E
|--------------------|--------------------|
|--------------------|--------------------|
|--------------------|--------------------|
|--------------------|--------------------|
|-----6-8---8-9-6----|------6-8---8-9-6---|
|-(6)-----6--------6-|--(6)-----6-------6-|


   ~~~                 ~~~
   H.           E E   +H.           +E   S S
|-11--------------9-|-(9)-----------(9)-11-9-|
|---------------9---|------------------------|
|-------------------|------------------------|
|-------------------|------------------------|
|-------------------|------------------------|
|-------------------|------------------------|
|
| +E  E E E E E E E   +E  E E E E E  E   E
|-------------------|------------------------|
|-------------------|------------------------|
|-------------------|------------------------|
|-----6-8---8-9-6---|-----6-8---8-9--6-------|
|---------6-------6-|-(6)-----6----------6---|
|-(6)---------------|------------------------|


   ~~~
   H.            +E   S  S    Q    Q    Q    Q
|--------------------------|---------------------|
|-12------------(12)-12-11-|-------9---11---12---|
|--------------------------|-12------------------|
|--------------------------|---------------------|
|--------------------------|---------------------|
|--------------------------|---------------------|
|
| +E  E E E E E   E   E      +E  E E E  E E  E E
|--------------------------|---------------------|
|--------------------------|---------------------|
|--------------------------|---------------------|
|-----6-8---8-9---6--------|-----6-8----8-9--6---|
|-(6)-----6-----------6----|-(6)-----6---------6-|
|--------------------------|---------------------|


   ~~~                   ~~~~
   H.           E  E    +H.            +E   S  S
|-11--------------12-|-(12)-----------(12)-12-11-|
|---------------9----|---------------------------|
|--------------------|---------------------------|
|--------------------|---------------------------|
|--------------------|---------------------------|
|--------------------|---------------------------|
|
| +E  E E E E E E  E    +E  E E E E E   E   E
|--------------------|---------------------------|
|--------------------|---------------------------|
|--------------------|---------------------------|
|-----6-8---8-9-6----|------6-8---8-9---6--------|
|-(6)-----6--------6-|--(6)-----6-----------6----|
|--------------------|---------------------------|


   ~~~
   H.           +E  S  S    Q     Q    Q    Q
|--9------------(9)-9-11-|-12----15---16---18----||
|------------------------|----------------------o||
|------------------------|-----------------------||
|------------------------|-----------------------||
|------------------------|----------------------o||
|------------------------|-----------------------||
|
| +E  E E E E E  E  E      +E  E  E E  E E  E E
|------------------------|-----------------------||
|------------------------|----------------------o||
|------------------------|-----------------------||
|-----6-8---8-9--6-------|-----6--8----8-9--6----||
|-(6)-----6---------6----|-(6)------6---------6-o||
|------------------------|-----------------------||



Suggest correction
Give kudos to tab author, rate the tab!
1 2 3 4 5
comments
print report bad tab
guest
You may want to rate the tab now too:
select rating
Wanna post a correction for this tab? Suggest correction