Oops, an error
Loading. Please wait.

Mega Man 3 - Dr Wily Boss Theme Bass Tab

version 1
version 1

Whole song

  • There is no plain bass tab for this song.

Interactive

4 views 1 this week
no commentswrite comment
1 2 3 4 5
2 more votes to show rating
add to favorites
launch autoscroll
font size
0
reset
guitar tuner
Autoscroll
slow
fast
+/-
esc
set tempo
stop
Help us to improve Ultimate-Guitar.com Take our survey!
×
Author
Difficulty
About this tab version
There is no plain bass tab for this song. Was this info helpful? Yes No
#----------------------------------PLEASE NOTE---------------------------------#
#This file is the author's own work and represents their interpretation of the #
#song. You may only use this file for private study, scholarship, or research. #
#------------------------------------------------------------------------------##

Mega Man 3 (NES) - Dr Wily Boss theme...on bass!!!

Gtr I (E A D G) 
  Q=165
  Gtr I
  W          W
G|----------|------|
D|----------|------|
A|----------|------|
E|----------|------|


  E E Q  H      E E Q  H        E E E E E E E E   E E E E E E E E
|-------------|-------------||------------------|-----------------|
|-6-6---------|-6-6---------||o-6-6-6-6-6-6-6-6-|-6-6-6-6-6-6-6-6-|
|-------------|-------------||o-----------------|-----------------|
|-------------|-------------||------------------|-----------------|


  E E E E E E E E   E E E E E E E E   E E E E E E E E   E E E E E E E E
|-----------------|-----------------|-----------------|-----------------|
|-6-6-6-6-6-6-6-6-|-6-6-6-6-6-6-6-6-|-4-4-4-4-4-4-4-4-|-5-5-5-5-5-5-5-5-|
|-----------------|-----------------|-----------------|-----------------|
|-----------------|-----------------|-----------------|-----------------|


  E E E E E E E E   E E E E E E E E   E E E E E E E E   E E E E E E E E
|---------3-3-3-3-|-4-4-4-4---------|-----------------|-----------------|
|-6-6-6-6---------|-----------------|-----------------|-----------------|
|-----------------|---------4-4-4-4-|-6-6-6-6-6-6-6-6-|-6-6-6-6-6-6-6-6-|
|-----------------|-----------------|-----------------|-----------------|


  E E S S E E. S E E   E E S S E E. S E E
|-----8-----8--------|-----8-----8---------||
|--------------------|--------------------o||
|-6-6---6-6----6-6-6-|-6-6---6-6----6-6-6-o||
|--------------------|---------------------||



Suggest correction
Give kudos to tab author, rate the tab!
1 2 3 4 5
comments
print report bad tab
guest
You may want to rate the tab now too:
select rating
Wanna post a correction for this tab? Suggest correction