Oops, an error
Loading. Please wait.

Mega Man 3 - Dr Wily Boss Theme Tab

version 1
version 1

Whole song

  • There is no plain tab of this song.

Interactive

13 views 1 this week
no commentswrite comment
1 2 3 4 5
2 more votes to show rating
add to favorites
launch autoscroll
font size
0
reset
how to read this tab
guitar tuner
Autoscroll
slow
fast
+/-
esc
set tempo
stop
Help us to improve Ultimate-Guitar.com Take our survey!
×
Author
Difficulty
advanced
About this tab version
There is no plain tab of this song. Was this info helpful? Yes No
#----------------------------------PLEASE NOTE---------------------------------#
#This file is the author's own work and represents their interpretation of the #
#song. You may only use this file for private study, scholarship, or research. #
#------------------------------------------------------------------------------##

Mega Man 3 (NES) - Dr Wily Boss theme

Gtr I (E A D G B E) - 'Sawtooth'
Gtr II (E A D G B E) - 'Squarewave'

  Q=165
  Gtr I
   S  S  S  S  S  S  S  S  S  S  S  S  S  S  S  S
|-------------------------------------------------|
|-14-11-------11----------------------------------|
|-------12-10----12-10----12-10-------10----------|
|----------------------11-------11--8----11--8----|
|----------------------------------------------10-|
|-------------------------------------------------|
|
| Gtr II
|  S  S  S  S  S  S  S  S  S  S  S  S  S  S  S  S
|----12----12-----9-----9-------------------------|
|----------------------------11----11-------------|
|--9-----9-----6-----6-------------------12----12-|
|--------------------------8-----8----------------|
|-------------------------------------10----10----|
|-------------------------------------------------|


   S S  S S S  S S S  S S S S S S S S
|---------------------------------------|
|---------------------------------------|
|---------------------------------------|
|-11-8------8---------------------------|
|------10-7---10-7---10-7-----7-4-------|
|------------------9------9-6-----6-3---|
|
|  S S  S S S  S S S  S S S S S S S S
|---------------------------------------|
|---------------------------------------|
|----9----9----6---6--------------------|
|-----------------------8---8---5---5---|
|--7----7---4----4----------------------|
|---------------------6---6---3---3-----|


   E  E  E  E  +H        E  E  E  E  +H
|---------------------|---------------------------------------------------|
|---------------------|---------------------------------------------------|
|-------11-13-(13)----|-------11-13-(13)----------------------------------|
|---------------------|---------------------------------------------------|
|---------------------|---------------------------------------------------|
|-11-11---------------|-11-11---------------------------------------------|
|
|                                     |--3---|  |--3--|  |--3--|  |--3--|
|  E  E  E  E  +H        E  E  E  E   S   S  S  S  S  S  S  S  S  S  S  S
|---------------------|--------------16--14-------------------------------|
|-------11-12-(12)----|-------11-12---------16-14-------------------------|
|---------------------|---------------------------16-13-------------------|
|---------------------|---------------------------------16-13-------------|
|-11-11---------------|-11-11---------------------------------16-14-------|
|---------------------|---------------------------------------------17-16-|


     E E  E Q    Q    E   +E  Q    E  H
||----------------------|----------------------|
||o----8--9-------------|----------------------|
||---8------7----6------|----------------------|
||--------------------9-|-(9)-8----5--6--------|
||o---------------------|----------------------|
||----------------------|----------------------|
|
|    E E  E E  E E  E E    E  E  E E  E E  E E
||--11---10---11---12---|-11----10---11--------|
||o----9----9----9----9-|-----9----9----9-11-9-|
||----------------------|----------------------|
||----------------------|----------------------|
||o---------------------|----------------------|
||----------------------|----------------------|


   E E  E Q    Q    E   +E  Q    E  H
|---------------------|---------------------|
|----8--9-------------|---------------------|
|--8------7----6------|---------------------|
|-------------------9-|-(9)-8----5--6-------|
|---------------------|---------------------|
|---------------------|---------------------|
|
|  E E  E E  E E  E E    E  E  E E  E E  E E
|-11---10---11---12---|-11----10---11-------|
|----9----9----9----9-|-----9----9----9-11-9|
|---------------------|---------------------|
|---------------------|---------------------|
|---------------------|---------------------|
|---------------------|---------------------|


   Q.               S  S  Q.               S  S    Q.               S  S  Q.               S  S
|-----------------------------------------------|-----------------------------------------------|
|-----------------------------------------------|-------------------8--9-11----------------9-11-|
|-----------------------------------------------|--8--------------------------------------------|
|--9----------------8--9-11----------------9-11-|-----------------------------------------------|
|-----------------------------------------------|-----------------------------------------------|
|-----------------------------------------------|-----------------------------------------------|
|
|  S   S  S S  S S  S  S  S   S  S S  S S  S  S    S   S  S S  S S  S  S  S   S  S S  S S  S  S
|-----------------------------------------------|-----------------------------------------------|
|-12--11-10-9----9-10-11-12--11-10-9----9-10-11-|-12--11-10-9----9-10-11-12--11-10-9----9-10-11-|
|-------------12---------------------12---------|-------------12---------------------12---------|
|-----------------------------------------------|-----------------------------------------------|
|-----------------------------------------------|-----------------------------------------------|
|-----------------------------------------------|-----------------------------------------------|


   Q.               S  S  Q.               S  S    Q.               S  S  Q.               S  S
|-------------------------9-------------------9-|-11----------------9-11-12---------------11--9----|
|-12---------------11-12------------------12----|--------------------------------------------------|
|-----------------------------------------------|--------------------------------------------------|
|-----------------------------------------------|--------------------------------------------------|
|-----------------------------------------------|--------------------------------------------------|
|-----------------------------------------------|--------------------------------------------------|
|
|  S   S  S S  S S  S  S  S   S  S S  S S  S  S    S   S  S S  S S  S  S  S   S  S S  S S  S  S
|-----------------------------------------------|--------------------------------------------------|
|-12--11-10-9----9-10-11-12--11-10-9----9-10-11-|-12--11-10-9----9-10-11-12--11-10-9----9-10-11----|
|-------------12---------------------12---------|-------------12---------------------12------------|
|-----------------------------------------------|--------------------------------------------------|
|-----------------------------------------------|--------------------------------------------------|
|-----------------------------------------------|--------------------------------------------------|


   S  S  S  S  S  S  S  S  S  S  S  S  S  S  S  S
|----------------------------------------------15-|
|-16-15-14-13-------------------------14-16-17----|
|-------------16-15-14-13-12-13-15-16-------------|
|-------------------------------------------------|
|-------------------------------------------------|
|-------------------------------------------------|
|
|  E     E     E     E     E     E     E     E
|-------------------------------------------------|
|-11-----------9----------11----------12----------|
|--------8-----------8-----------8-----------8----|
|-------------------------------------------------|
|-------------------------------------------------|
|-------------------------------------------------|


   S  S  S  S  S  S  S  S  S  S  S  S  S  S  S  S
|-18-17-16-15----------------------16-18-19-21-22-|
|-------------19-18-17-16----16-20----------------|
|-------------------------18----------------------|
|-------------------------------------------------|
|-------------------------------------------------|
|-------------------------------------------------|
|
|  E     E     E     E     E     E     E     E
|-------------------------------------------------|
|-11-----------9----------11-----------8----------|
|--------8-----------8-----------8-----------8----|
|-------------------------------------------------|
|-------------------------------------------------|
|-------------------------------------------------|


   E  E  S  S  E  E.  S  E  E    E  E  S  S  E  E.  S  E  E
|-------18-------18-----------|-------18-------18------------||
|-----------------------------|-----------------------------o||
|-15-15----15-15-----15-15-15-|-15-15----15-15-----15-15-15--||
|-----------------------------|------------------------------||
|-----------------------------|-----------------------------o||
|-----------------------------|------------------------------||
|
|  E  E  S  S  E  E.  S  E  E    E  E  S  S  E  E.  S  E  E
|-----------------------------|------------------------------||
|-----------------------------|-----------------------------o||
|--------8--------8-----------|--------8--------8------------||
|-----------------------------|------------------------------||
|--6--6-----6--6------6--6--6-|--6--6-----6--6------6--6--6-o||
|-----------------------------|------------------------------||

Duration Legend
---------------
W - whole; H - half; Q - quarter; E - 8th; S - 16th; T - 32nd; X - 64th; a - acciaccatura
+ - note tied to previous; . - note dotted; .. - note double dotted
Uncapitalized letters represent notes that are staccato (1/2 duration)
Irregular groupings are notated above the duration line
Duration letters will always appear directly above the note/fret number it represents the
duration for.  Duration letters with no fret number below them represent rests.  Multi-
bar rests are notated in the form Wxn, where n is the number of bars to rest for.  Low
melody durations appear below the staff

Tablature Legend
----------------
 h   - hammer-on
 p   - pull-off
 b   - bend
 pb  - pre-bend
 r   - bend release (if no number after the r, then release immediately)
 /\  - slide into or out of (from/to "nowhere")
 s   - legato slide
 S   - shift slide
 - natural harmonic
[n]  - artificial harmonic
n(n) - tapped harmonic
 ~   - vibrato
 tr  - trill
 T   - tap
 TP  - trem. picking
 PM  - palm muting
\n/  - tremolo bar dip; n = amount to dip
 \n  - tremolo bar down
 n/  - tremolo bar up
/n\  - tremolo bar inverted dip
 =   - hold bend; also acts as connecting device for hammers/pulls
 <> - volume swell (louder/softer)
 x   - on rhythm slash represents muted slash
 o   - on rhythm slash represents single note slash

Misc Legend
-----------
 |  - bar
||  - double bar
||o - repeat start
o|| - repeat end
*|  - double bar (ending)
 :  - bar (freetime)
 $  - Segno
 &  - Coda
Tempo markers -  = BPM(8/16=s8/s16), where s8 = swing 8ths, s16 = swing 16ths

Suggest correction
Give kudos to tab author, rate the tab!
1 2 3 4 5
comments
print report bad tab
guest
You may want to rate the tab now too:
select rating
Wanna post a correction for this tab? Suggest correction