Oops, an error
Loading. Please wait.

Mega Man 3 - Dr Wilys Castle 1 Bass Tab

version 1
version 1

Whole song

  • There is no plain bass tab for this song.

Interactive

4 views 1 this week
no commentswrite comment
1 2 3 4 5
3 more votes to show rating
add to favorites
launch autoscroll
font size
0
reset
guitar tuner
Autoscroll
slow
fast
+/-
esc
set tempo
stop
Help us to improve Ultimate-Guitar.com Take our survey!
×
Author
Difficulty
intermediate
About this tab version
There is no plain bass tab for this song. Was this info helpful? Yes No
#----------------------------------PLEASE NOTE---------------------------------#
#This file is the author's own work and represents their interpretation of the #
#song. You may only use this file for private study, scholarship, or research. #
#------------------------------------------------------------------------------##

Megaman 3 (NES) - Dr Wilys Castle 1 (Stage 1 and 2)...on bass!!!

Gtr I (B E A D G) 

  Q=135
  Gtr I
  E. S +E  E +S  E. E E     E E E. S E E E E
G|-----------------------||-------------------|
D|-----------------------||o-6---6--6-6-6---6-|
A|-----------------------||-------------------|
E|-4--2-(2)------------2-||o------------------|
B|----------5-(5)-2--5---||-------------------|


  E E E. S E E E E   E E E. S E E E E
|----------------6-|------------------|
|---6-6--6-9-6-9---|-6---6--6-6-6---6-|
|------------------|------------------|
|------------------|------------------|
|------------------|------------------|


  E E E. S E E E E   E E E. S E E E E   E E E. S E E E E   E E E. S E E E E
|------------------|------------------|----------------6-|------------------|
|---6-6--6-6-------|-6---6--6-6-6---6-|---6-6--6-9-6-9---|-6---6--6-6-6---6-|
|------------5-4---|------------------|------------------|------------------|
|----------------7-|------------------|------------------|------------------|
|------------------|------------------|------------------|------------------|


  E E E. S E E E E   E E E. S E E E E   E E E. S E E E E   E E E. S E E E E
|------------------|------------------|----------------6-|-6---6--6-6-6---6-|
|---6-6--6-6-------|-6---6--6-6-6---6-|---6-6--6-9-6-9---|------------------|
|------------5-4---|------------------|------------------|------------------|
|----------------7-|------------------|------------------|------------------|
|------------------|------------------|------------------|------------------|


  E E E. S E E E E   E E E. S E E E E   E E E. S E E E E   E E E. S E E E E
|---6-6--6-6-------|------------------|----------------6-|------------------|
|------------5-4-2-|-6---6--6-6-6---6-|---6-6--6-9-6-9---|-6---6--6-6-6---6-|
|------------------|------------------|------------------|------------------|
|------------------|------------------|------------------|------------------|
|------------------|------------------|------------------|------------------|


  E E E. S E E E E   E E E. S E E E E
|------------------|------------------|
|---6-6--6-6-------|-6---6--6-6-6---6-|
|------------5-4---|------------------|
|----------------7-|------------------|
|------------------|------------------|


  E E E. S E E E  E    E E  E.  S  E  E E  E
|-------------------|---------------------13-|
|---6-6--6-9-6-9-11-|------------------------|
|-------------------|-11---11--11-11-11------|
|-------------------|------------------------|
|-------------------|------------------------|


  E  E  E.  S  E  E E E    E E  E.  S E  E E  E
|-----------------------|-----------------------|
|-----------------------|-11---11-----9-11---11-|
|---11-11--11-11--------|----------11-----------|
|----------------10-9-7-|-----------------------|
|-----------------------|-----------------------|


  E  E  E.  S  E E  E E    E E  E.  S E  E E  E
|-----------------------|-----------------------|
|---11-11--11-11------9-|-11---11-----9-11---11-|
|----------------9-11---|----------11-----------|
|-----------------------|-----------------------|
|-----------------------|-----------------------|


  E  E  E.  S  E  E E E   E E E. S  E E E E
|-----------------------|-------------------|
|---11-11--11-11--------|-------------------|
|----------------10-9-7-|-7---7-------7---7-|
|-----------------------|--------7-10-------|
|-----------------------|-------------------|


  E E E. S E  E E  E   E E E. S  E E E E
|--------------------|-------------------|
|--------------------|-------------------|
|-7---7--7-7---------|-7---7-------7---7-|
|---------------7-10-|--------7-10-------|
|------------10------|-------------------|


  E E E. S E E E  E
|-----------------------||
|------------8-7-------o||
|---7-7--7-7-----10-----||
|----------------------o||
|-----------------------||


Suggest correction
Give kudos to tab author, rate the tab!
1 2 3 4 5
comments
print report bad tab
guest
You may want to rate the tab now too:
select rating
Wanna post a correction for this tab? Suggest correction