Oops, an error
Loading. Please wait.

Mega Man 3 - Dr Wilys Castle 1 Tab

version 1
version 1

Whole song

  • There is no plain tab of this song.

Interactive

10 views 3 this week
no commentswrite comment
1 2 3 4 5
3 more votes to show rating
add to favorites
launch autoscroll
font size
0
reset
how to read this tab
guitar tuner
Autoscroll
slow
fast
+/-
esc
set tempo
stop
Help us to improve Ultimate-Guitar.com Take our survey!
×
Author
Difficulty
advanced
About this tab version
There is no plain tab of this song. Was this info helpful? Yes No
#----------------------------------PLEASE NOTE---------------------------------#
#This file is the author's own work and represents their interpretation of the #
#song. You may only use this file for private study, scholarship, or research. #
#------------------------------------------------------------------------------##

Megaman 3 (NES) - Dr Wilys Castle 1 (Stage 1 and 2)

Gtr I (E A D G B E) - 'Squarewave 1'
Gtr II (E A D G B E) - 'Squarewave 2'
Gtr III (E A D G B E) - 'Sawtooth'

  Q=135
 4/4
  Gtr I
   S  S  S  S  S  S  S  S  S  S  S  S  S  S  S  S
|-------------------------------------11----11-14-|
|----------11----11-12-11-12-14-12-14----14-------|
|-13-11-13----13----------------------------------|
|-------------------------------------------------|
|-------------------------------------------------|
|-------------------------------------------------|
|
| Gtr II
|  S  S  S  S  S  S  S  S  S  S  S  S  S  S  S  S
|----------------------------------------------11-|
|--------------------9-----9-11--9-11-12-11-12----|
|--9--8--9-11--9-11----11-------------------------|
|-------------------------------------------------|
|-------------------------------------------------|
|-------------------------------------------------|


     Q.    E  +Q    Q     +E   Q.    E E  E E
||--18----19-(19)--18--|-(18)-19----18--------|
||o--------------------|-----------------19---|
||---------------------|----------------------|
||---------------------|----------------------|
||o--------------------|----------------------|
||---------------------|----------------------|
|
|   Gtr II
|    Q.    E  +Q    Q     +E   Q.    E E  E E
||--14----16-(16)--14--|-(14)-16----14--------|
||o--------------------|-----------------16---|
||---------------------|----------------------|
||---------------------|----------------------|
||o--------------------|----------------------|
||---------------------|----------------------|


   Q.    E  +Q    Q     +E   Q.    E E  E E
|-18----19-(19)--18--|-(18)-19----18-------|
|--------------------|-----------------19--|
|--------------------|---------------------|
|--------------------|---------------------|
|--------------------|---------------------|
|--------------------|---------------------|
|
|  Q.    E  +Q    Q     +E   Q.    E E  E E
|-14----16-(16)--14--|-(14)-16----14-------|
|--------------------|-----------------16--|
|--------------------|---------------------|
|--------------------|---------------------|
|--------------------|---------------------|
|--------------------|---------------------|


   E  E  E  E  E.    S  +E   E     E   E  E  E  E.  S  +E   E
|-------19-21-22b23-21-(21)----|--19--21-19-18----------------|
|----21---------------------21-|---------------21--19-(19)-21-|
|------------------------------|------------------------------|
|------------------------------|------------------------------|
|------------------------------|------------------------------|
|------------------------------|------------------------------|
|
|  W                              +W
|-13---------------------------|-(13)-------------------------|
|------------------------------|------------------------------|
|------------------------------|------------------------------|
|------------------------------|------------------------------|
|------------------------------|------------------------------|
|------------------------------|------------------------------|


   Q.    E  +Q    Q     +E   Q.    E E  E E
|-18----19-(19)--18--|-(18)-19----18--------|
|--------------------|-----------------19---|
|--------------------|----------------------|
|--------------------|----------------------|
|--------------------|----------------------|
|--------------------|----------------------|
|
|  Q.    E  +Q    Q     +E   Q.    E E  E E
|-14----16-(16)--14--|-(14)-16----14--------|
|--------------------|-----------------16---|
|--------------------|----------------------|
|--------------------|----------------------|
|--------------------|----------------------|
|--------------------|----------------------|


   Q.    E  +Q    Q     +E   Q.    E E  E E
|-18----19-(19)--18--|-(18)-19----18--------|
|--------------------|-----------------19---|
|--------------------|----------------------|
|--------------------|----------------------|
|--------------------|----------------------|
|--------------------|----------------------|
|
|  Q.    E  +Q    Q     +E   Q.    E E  E E
|-14----16-(16)--14--|-(14)-16----14--------|
|--------------------|-----------------16---|
|--------------------|----------------------|
|--------------------|----------------------|
|--------------------|----------------------|
|--------------------|----------------------|


   E  E  E  E  E.    S  +E   E     E   E  E  E  E.  S  +E   E
|-------19-21-22b23-21-(21)----|--19--21-19-18----------------|
|----21---------------------21-|---------------21--19-(19)-21-|
|------------------------------|------------------------------|
|------------------------------|------------------------------|
|------------------------------|------------------------------|
|------------------------------|------------------------------|
|
|  W                              +W
|-13---------------------------|-(13)-------------------------|
|------------------------------|------------------------------|
|------------------------------|------------------------------|
|------------------------------|------------------------------|
|------------------------------|------------------------------|
|------------------------------|------------------------------|


   Q   Q   Q   E.  S    +E   E  E.  S  +E   E  Q
|--------------------|----------------------------|
|-19--18--16------16-|-(16)-----------------------|
|-------------18-----|---------------------16-18--|
|--------------------|------16-16--16-(16)--------|
|--------------------|----------------------------|
|--------------------|----------------------------|
|
| Gtr III
|  Q   Q   Q   E.  S    +E   E  E.  S  +E   E  Q
|--------------------|----------------------------|
|--------------------|----------------------------|
|-16--16--16--15--13-|-(13)-----------------------|
|--------------------|---------------------13-15--|
|--------------------|------14-14--14-(14)--------|
|--------------------|----------------------------|


                             ~~~~
|------------------------|---------|
|-16---------------------|---------|
|-----18--16--15-(15)----|---------|
|---------------------18-|-(18)----|
|------------------------|---------|
|------------------------|---------|
|  Q   Q   E.  S  +E   E    +W
|
|                            ~~~~
|------------------------|---------|
|------------------------|---------|
|------------------------|---------|
|-16--16--13-------------|---------|
|-------------16-(16)-14-|-(14)----|
|------------------------|---------|
   Q   Q   E.  S  +E   E    +W


   Q   Q   Q   E.  S    +E   E  E.  S  +E   E  Q
|--------------------|----------------------------|
|-19--18--16------16-|-(16)-----------------------|
|-------------18-----|---------------------16-18--|
|--------------------|------16-16--16-(16)--------|
|--------------------|----------------------------|
|--------------------|----------------------------|
|
|  Q   Q   Q   E.  S    +E   E  E.  S  +E   E  Q
|--------------------|----------------------------|
|--------------------|----------------------------|
|-16--16--16--15--13-|-(13)-----------------------|
|--------------------|---------------------13-15--|
|--------------------|------14-14--14-(14)--------|
|--------------------|----------------------------|


                             ~~~~
   Q   Q   E.  S  +E   E    +W
|------------------------|---------|
|-16------19--18-(18)----|---------|
|-----18--------------18-|-(18)----|
|------------------------|---------|
|------------------------|---------|
|------------------------|---------|
|
|                            ~~~~
|  Q   Q   E.  S  +E   E    +W
|------------------------|---------|
|------------------------|---------|
|---------15--13-(13)----|---------|
|-16--16--------------15-|-(15)----|
|------------------------|---------|
|------------------------|---------|


  E  E  E.  S  E  E  Q    E  E  E.  S  E  E  Q
|-----------------------|-----------------------|
|---19-19--19-19-18-21--|---19-19--19-19-18-21--|
|-----------------------|-----------------------|
|---16-16--16-16-15-18--|---16-16--16-16-15-18--|
|-----------------------|-----------------------|
|-----------------------|-----------------------|
|
| Gtr III
| E  E  E.  S  E  E  Q    E  E  E.  S  E  E  Q
|-----------------------|-----------------------|
|-----------------------|-----------------------|
|-----------------------|-----------------------|
|-----------------------|-----------------------|
|---16-16--16-16-16-16--|---16-16--16-16-16-16--|
|-----------------------|-----------------------|


  E  E  E.  S  E  E  E  E    +W
|-------------------------|---------|
|---19-19--19-19-18-21----|---------|
|----------------------16-|-(16)----|
|---16-16--16-16-15-18----|---------|
|----------------------14-|-(14)----|
|-------------------------|---------|
|
|                             ~~~~
| E  E  E.  S  E  E  E  E    +W
|-------------------------|---------|
|-------------------------|---------|
|-------------------------|---------|
|-------------------------|---------|
|---16-16--16-16-16-16----|---------|
|----------------------14-|-(14)----|


  E  E  E.  S  E  E  Q    E  E  E.  S  E  E  Q
|---17-17--17-17-16-19--|---17-17--17-17-16-19--|
|-----------------------|-----------------------|
|---14-14--14-14-13-16--|---14-14--14-14-13-16--|
|-----------------------|-----------------------|
|-----------------------|-----------------------|
|-----------------------|-----------------------|
|
| E  E  E.  S  E  E  Q    E  E  E.  S  E  E  Q
|-----------------------|-----------------------|
|-----------------------|-----------------------|
|-----------------------|-----------------------|
|---14-14--14-14-14-14--|---14-14--14-14-14-14--|
|-----------------------|-----------------------|
|-----------------------|-----------------------|


  E  E  E.  S  E  E  E  S  S    E  S  S  E  S  S  S  S  S  S  S  S  S  S
|---17-17--17-17-16-19-17-16-|-17-16-14-16-14----------------------14-16----||
|----------------------------|----------------17----------14-16-17---------o||
|---14-14--14-14-13-16-14-13-|-------------------13-14-16-------------------||
|----------------------------|----------------------------------------------||
|----------------------------|---------------------------------------------o||
|----------------------------|----------------------------------------------||
|
| E  E  E.  S  E  E  E  S  S    E  S  S  E  S  S  S  S  S  S  S  S  S  S
|----------------------------|----------------------------------------------||
|----------------------------|---------------------------------------------o||
|----------------------------|-14-13-11-13-11----------------------11-13----||
|---14-14--14-14-14-14-14-14-|----------------14----------11-13-14----------||
|----------------------------|-------------------11-12-14------------------o||
|----------------------------|----------------------------------------------||



Suggest correction
Give kudos to tab author, rate the tab!
1 2 3 4 5
comments
print report bad tab
guest
You may want to rate the tab now too:
select rating
Wanna post a correction for this tab? Suggest correction