Oops, an error
Loading. Please wait.

Mega Man 3 - Dr Wilys Castle 2 Tab

version 1
version 1

Whole song

  • There is no plain tab of this song.

Interactive

1 view 1 this week
no commentswrite comment
1 2 3 4 5
3 more votes to show rating
add to favorites
launch autoscroll
font size
0
reset
how to read this tab
guitar tuner
Autoscroll
slow
fast
+/-
esc
set tempo
stop
Help us to improve Ultimate-Guitar.com Take our survey!
×
Author
Difficulty
advanced
About this tab version
There is no plain tab of this song. Was this info helpful? Yes No
#----------------------------------PLEASE NOTE---------------------------------#
#This file is the author's own work and represents their interpretation of the #
#song. You may only use this file for private study, scholarship, or research. #
#------------------------------------------------------------------------------##

Megaman 3 (NES) - Dr Wilys Castle 2 (Stage 3 and 4)

Gtr I (E A D G B E) - 'Sawtooth 1'
Gtr II (E A D G B E) - 'Sawtooth 2'

  Q=150
  Gtr I
   S S  S  S  S  S  S  S  S S  S  S  S S  S  S
|----------------------------------------------|
|------10----------10---------10---------------|
|-11-9----12--9-11----12-11-9----12-11-9-------|
|----------------------------------------12-11-|
|----------------------------------------------|
|----------------------------------------------|
|
| Gtr II
|  S S  S  S  S  S  S  S  S S  S  S  S S  S  S
|----------------------------------------------|
|----------------------------------------------|
|-------9-----------9----------9---------------|
|-11-9----12-11--9----12-11-9----12-11-9-------|
|----------------------------------------12--9-|
|----------------------------------------------|


     E E  E E E  E E  E   E  E  E  E  E  E  E  E
||----------------------|-------------------------|
||o---------------------|-------------------------|
||---9----9------9------|-------------------------|
||-------------------12-|----9-11--9-11-12-11--9--|
||o---------------------|-------------------------|
||----------------------|-------------------------|
|
|    E E  E E E  E E  E   E  E  E  E  E  E  E  E
||----------------------|-------------------------|
||o---------------------|-------------------------|
||----------------------|-------------------------|
||----------------------|-------------------------|
||o-12---12-----12---10-|---10-10-10-10-10-10-10--|
||----------------------|-------------------------|


   E E  E E E  E E  E   E  E  E  E  E  E  E  E    E E  E E E  E E  E
|---------------------|------------------------|-----------------------|
|---------------------|------------------------|-----------------------|
|--9----9------9------|------------------------|-11---11-----11--------|
|------------------12-|----9-11--9-11-12-11--9-|------------------12---|
|---------------------|------------------------|-----------------------|
|---------------------|------------------------|-----------------------|
|
|  E E  E E E  E E  E   E  E  E  E  E  E  E  E    E E  E E E  E E  E
|---------------------|------------------------|-----------------------|
|---------------------|------------------------|-----------------------|
|---------------------|------------------------|-----------------------|
|---------------------|------------------------|--9----9------9----9---|
|-12---12-----12---10-|---10-10-10-10-10-10-10-|-----------------------|
|---------------------|------------------------|-----------------------|


   Q  E S  S  E  E  E E    E E  E E E  E E  S  S    Q.    S  S H
|-----------------------|------------------------|---------------|
|-----------------------|------------------------|---------------|
|---------------------9-|-11---11-----11---11-11-|-11----12-11-9-|
|-------9-11-12-11-12---|------------------------|---------------|
|-----------------------|------------------------|---------------|
|-----------------------|------------------------|---------------|
|
|  W                       E E  E E E  E E  S  S    H        H
|-----------------------|------------------------|---------------|
|-----------------------|------------------------|---------------|
|-----------------------|------------------------|---------------|
|-----------------------|--9----9------9----9--9-|--9--------8---|
|-10--------------------|------------------------|---------------|
|-----------------------|------------------------|---------------|


  H     H       H     H       H.       +E   S  S     H.       +E  S  S
|------------|-------------|---------------------|---------------------|
|------------|-------------|------------------10-|---------------------|
|------------|--------9----|-11-------(11)-12----|--11-------(11)-9----|
|-9----11----|-12----------|---------------------|------------------12-|
|------------|-------------|---------------------|---------------------|
|------------|-------------|---------------------|---------------------|
|
| W            +W             W                     +W
|------------|-------------|---------------------|---------------------|
|------------|-------------|---------------------|---------------------|
|------------|-------------|---------------------|---------------------|
|------------|-------------|---------------------|---------------------|
|-9----------|-(9)---------|---------------------|---------------------|
|------------|-------------|-10------------------|-(10)----------------|


  H.      +E  E    H.      +E  S  S    H.       +E   E    W
|---------------|-------------------|------------------|-------|
|---------------|-------------------|------------------|-------|
|-9-------(9)---|-------------------|------------------|-------|
|-------------9-|--9-------(9)-9-12-|-12-------(12)-11-|-11----|
|---------------|-------------------|------------------|-------|
|---------------|-------------------|------------------|-------|
|
| W               +W                   W                  W
|---------------|-------------------|------------------|-------|
|---------------|-------------------|------------------|-------|
|---------------|-------------------|------------------|-------|
|---------------|-------------------|------------------|-------|
|-7-------------|-(7)---------------|------------------|-------|
|---------------|-------------------|--7---------------|--6----|


  H     H       H     H       H.       +E   S  S     H.       +E  S  S
|------------|-------------|---------------------|---------------------|
|------------|-------------|------------------10-|---------------------|
|------------|--------9----|-11-------(11)-12----|--11-------(11)-9----|
|-9----11----|-12----------|---------------------|------------------12-|
|------------|-------------|---------------------|---------------------|
|------------|-------------|---------------------|---------------------|
|
| W            +W             W                     +W
|------------|-------------|---------------------|---------------------|
|------------|-------------|---------------------|---------------------|
|------------|-------------|---------------------|---------------------|
|------------|-------------|---------------------|---------------------|
|-9----------|-(9)---------|---------------------|---------------------|
|------------|-------------|-10------------------|-(10)----------------|


  H.      +E  E    H.      +E  S  S    H.       +E   E    W
|---------------|-------------------|------------------|--------||
|---------------|-------------------|------------------|-------o||
|-9-------(9)---|-------------------|------------------|--------||
|-------------9-|--9-------(9)-9-12-|-12-------(12)-11-|-11-----||
|---------------|-------------------|------------------|-------o||
|---------------|-------------------|------------------|--------||
|
| W               +W                   W                  W
|---------------|-------------------|------------------|--------||
|---------------|-------------------|------------------|-------o||
|---------------|-------------------|------------------|--------||
|---------------|-------------------|------------------|--------||
|-7-------------|-(7)---------------|------------------|-------o||
|---------------|-------------------|--7---------------|--6-----||



Suggest correction
Give kudos to tab author, rate the tab!
1 2 3 4 5
comments
print report bad tab
guest
You may want to rate the tab now too:
select rating
Wanna post a correction for this tab? Suggest correction