Oops, an error
Loading. Please wait.

Mega Man 3 - Dr Wilys Castle 3 Bass Tab

version 1
version 1

Whole song

  • There is no plain bass tab for this song.

Interactive

4 views 1 this week
no commentswrite comment
1 2 3 4 5
3 more votes to show rating
add to favorites
launch autoscroll
font size
0
reset
guitar tuner
Autoscroll
slow
fast
+/-
esc
set tempo
stop
Help us to improve Ultimate-Guitar.com Take our survey!
×
Author
Difficulty
About this tab version
There is no plain bass tab for this song. Was this info helpful? Yes No
#----------------------------------PLEASE NOTE---------------------------------#
#This file is the author's own work and represents their interpretation of the #
#song. You may only use this file for private study, scholarship, or research. #
#------------------------------------------------------------------------------##

Megaman 3 (NES) - Dr Wilys Castle 3rd theme (5th & 6th stage)...on bass!!!

Gtr I (E A D G) 

  Q=150
  Gtr I
  W          W          W          W
G|-5--------|----------|-7--------|------|
D|----------|-6--------|----------|-5----|
A|----------|----------|----------|------|
E|----------|----------|----------|------|


    H    H      H    H      H    H      H    H
||--5----5----|-5----5----|-----------|----------|
||o-----------|-----------|-6----6----|-6----6---|
||o-----------|-----------|-----------|----------|
||------------|-----------|-----------|----------|


  H    H      H    H      H    H      H    H
|-----------|-----------|-----------|-----------|
|-----------|-----------|-5----5----|-5----5----|
|-8----8----|-8----8----|-----------|-----------|
|-----------|-----------|-----------|-----------|


  Q  Q  Q  Q    Q  Q  Q  Q    Q  Q  Q  Q    Q  Q  Q  Q
|-5--5--5--5--|-5--5--5--5--|-------------|-------------|
|-------------|-------------|-6--6--6--6--|-6--6--6--6--|
|-------------|-------------|-------------|-------------|
|-------------|-------------|-------------|-------------|


  Q  Q  Q  Q    Q  Q  Q  Q    Q  Q  Q  Q    Q  Q  Q  Q
|-------------|-------------|-------------|-------------|
|-------------|-------------|-5--5--5--5--|-5--5--5--5--|
|-8--8--8--8--|-8--8--8--8--|-------------|-------------|
|-------------|-------------|-------------|-------------|


  W          W          H    H      W
|-5--------|----------|-----------|-5----|
|----------|----------|-6----8----|------|
|----------|-8--------|-----------|------|
|----------|----------|-----------|------|


  W          W          H    H      Q  Q  Q  Q
|-5--------|----------|-----------|-5--5--5--5---||
|----------|----------|-6----8----|-------------o||
|----------|-8--------|-----------|-------------o||
|----------|----------|-----------|--------------||


Suggest correction
Give kudos to tab author, rate the tab!
1 2 3 4 5
comments
print report bad tab
guest
You may want to rate the tab now too:
select rating
Wanna post a correction for this tab? Suggest correction