Oops, an error
Loading. Please wait.

Mega Man 3 - Dr Wilys Castle 3 Tab

version 1
version 1

Whole song

  • There is no plain tab of this song.

Interactive

7 views 3 this week
no commentswrite comment
1 2 3 4 5
3 more votes to show rating
add to favorites
launch autoscroll
font size
0
reset
how to read this tab
guitar tuner
Autoscroll
slow
fast
+/-
esc
set tempo
stop
Help us to improve Ultimate-Guitar.com Take our survey!
×
Author
Difficulty
intermediate
About this tab version
There is no plain tab of this song. Was this info helpful? Yes No
#----------------------------------PLEASE NOTE---------------------------------#
#This file is the author's own work and represents their interpretation of the #
#song. You may only use this file for private study, scholarship, or research. #
#------------------------------------------------------------------------------##

Megaman 3 (NES) - Dr Wilys Castle 3rd theme (5th & 6th stage)

Gtr I (E A D G B E) - 'Sawtooth'
Gtr II (E A D G B E) - 'Squarewave'

  Q=150
  Gtr I
   E  E  E  E  E  E  E  E    E  E  E  E  E  E  E  E
|-------------------------|-------------------------|
|-------------------------|-------------------------|
|-------------------------|-------------------------|
|--------9-10--------9-10-|--------9-10--------9-10-|
|-11-12-------11-12-------|-11-12-------11-12-------|
|-------------------------|-------------------------|
|
| Gtr II
|  E  E  E  E  E  E  E  E    E  E  E  E  E  E  E  E
|-------------------------|-------------------------|
|-------------------------|-------------------------|
|-------------------------|-------------------------|
|-------------------------|-------------------------|
|--8--9-10-11--8--9-10-11-|--8--9-10-11--8--9-10-11-|
|-------------------------|-------------------------|


   E  E  E  E  E  E  E  E    E E  E  E E  E  E E
|-------------------------|----------------------|
|-------------------------|----------------------|
|-------------------------|------------8---------|
|--------9-10--------9-10-|-10-9-10-12---12-10-9-|
|-11-12-------11-12-------|----------------------|
|-------------------------|----------------------|
|
|  E  E  E  E  E  E  E  E    W
|-------------------------|----------------------|
|-------------------------|----------------------|
|-------------------------|----------------------|
|-------------------------|----------------------|
|--8--9-10-11--8--9-10-11-|-10-------------------|
|-------------------------|----------------------|


     E     E     E     E     E     E     E     E       E     E     E     E     E     E     E     E
||--------------------------------------------------|-------------------------------------------------|
||o-------------------------------------------------|-------------------------------------------------|
||--------------------10----------------------10----|-------------------10----------------------10----|
||--10----12----13----------10----12----13----------|-10----12----13----------10----12----13----------|
||o-------------------------------------------------|-------------------------------------------------|
||--------------------------------------------------|-------------------------------------------------|
|
|    |---3----|  |---3----|  |---3----|  |---3----|    |---3----|  |---3----|  |---3----|  |---3----|
|    E  E     E  E  E     E  E  E     E  E  E     E    E  E     E  E  E     E  E  E     E  E  E     E
||--------------------------------------------------|-------------------------------------------------|
||o-------------------------------------------------|-------------------------------------------------|
||--12-12----12-11-11----11-12-12----12-13-13----13-|-12-12----12-11-11----11-12-12----12-13-13----13-|
||--------------------------------------------------|-------------------------------------------------|
||o-------------------------------------------------|-------------------------------------------------|
||--------------------------------------------------|-------------------------------------------------|


   E     E     E     E     E     E     E     E       E     E     E     E     E     E     E     E
|-------------------------------------------------|----------------------------------------------------|
|-------------------------------------------------|----------------------------------------------------|
|-------------------10----------------------10----|-------------------10----------------------10-------|
|-10----12----13----------10----12----13----------|-10----12----13----------10----12----13-------------|
|-------------------------------------------------|----------------------------------------------------|
|-------------------------------------------------|----------------------------------------------------|
|
|  |---3----|  |---3----|  |---3----|  |---3----|    |---3----|  |---3----|  |---3----|  |---3----|
|  E  E     E  E  E     E  E  E     E  E  E     E    E  E     E  E  E     E  E  E     E  E  E     E
|-------------------------------------------------|----------------------------------------------------|
|-------------------------------------------------|----------------------------------------------------|
|-12-12----12-11-11----11-12-12----12-13-13----13-|-12-12----12-11-11----11-12-12----12-13-13----13----|
|-------------------------------------------------|----------------------------------------------------|
|-------------------------------------------------|----------------------------------------------------|
|-------------------------------------------------|----------------------------------------------------|


   E     E     E     E     E     E      E      E       E     E     E     E     E     E      E      E
|---------------------------------------------------|---------------------------------------------------|
|---------------------------------------------------|---------------------------------------------------|
|-------------------10------------------------10----|-------------------10------------------------10----|
|-10----12----13----------10----12-----13-----------|-10----12----13----------10----12-----13-----------|
|---------------------------------------------------|---------------------------------------------------|
|---------------------------------------------------|---------------------------------------------------|
|
|  |---3----|  |---3----|  |---3----|   |----3----|    |---3----|  |---3----|  |---3----|   |----3----|
|  E  E     E  E  E     E  E  E     E  +E   E     E    E  E     E  E  E     E  E  E     E  +E   E     E
|---------------------------------------------------|---------------------------------------------------|
|---------------------------------------------------|---------------------------------------------------|
|---------------------------------------------------|---------------------------------------------------|
|-12-12----12-11-11----11-12-12----12-(12)-13----13-|-12-12----12-11-11----11-12-12----12-(12)-13----13-|
|---------------------------------------------------|---------------------------------------------------|
|---------------------------------------------------|---------------------------------------------------|


   E  E  E  E  E  E  E  E    E E  E  E  E  E  E E
|-------------------------|--------------------------|
|-------------------------|--------------------------|
|----------10----------10-|--------------------------|
|-10-12-13----10-12-13----|-10-9-10-12-13-12-10-9----|
|-------------------------|--------------------------|
|-------------------------|--------------------------|
|
|  W                         W
|-------------------------|--------------------------|
|-------------------------|--------------------------|
|-------------------------|--------------------------|
|-10----------------------|--9-----------------------|
|-------------------------|--------------------------|
|-------------------------|--------------------------|


   E     E     E     E     E     E     E     E       E     E     E     E     E     E     E     E
|-------------------------------------------------|-------------------------------------------------|
|-------------------------------------------------|-------------------------------------------------|
|-------------------10----------------------10----|-------------------10----------------------10----|
|-10----12----13----------10----12----13----------|-10----12----13----------10----12----13----------|
|-------------------------------------------------|-------------------------------------------------|
|-------------------------------------------------|-------------------------------------------------|
|
|  |---3----|  |---3----|  |---3----|  |---3----|    |---3----|  |---3----|  |---3----|  |---3----|
|  E  E     E  E  E     E  E  E     E  E  E     E    E  E     E  E  E     E  E  E     E  E  E     E
|-------------------------------------------------|-------------------------------------------------|
|-------------------------------------------------|-------------------------------------------------|
|-12-12----12-11-11----11-12-12----12-13-13----13-|-12-12----12-11-11----11-12-12----12-13-13----13-|
|-------------------------------------------------|-------------------------------------------------|
|-------------------------------------------------|-------------------------------------------------|
|-------------------------------------------------|-------------------------------------------------|


   E     E     E     E     E     E     E     E       E     E     E     E     E     E     E     E
|-------------------------------------------------|----------------------------------------------------|
|-------------------------------------------------|----------------------------------------------------|
|-------------------10----------------------10----|-------------------10----------------------10-------|
|-10----12----13----------10----12----13----------|-10----12----13----------10----12----13-------------|
|-------------------------------------------------|----------------------------------------------------|
|-------------------------------------------------|----------------------------------------------------|
|
|  |---3----|  |---3----|  |---3----|  |---3----|    |---3----|  |---3----|  |---3----|  |---3----|
|  E  E     E  E  E     E  E  E     E  E  E     E    E  E     E  E  E     E  E  E     E  E  E     E
|-------------------------------------------------|----------------------------------------------------|
|-------------------------------------------------|----------------------------------------------------|
|-12-12----12-11-11----11-12-12----12-13-13----13-|-12-12----12-11-11----11-12-12----12-13-13----13----|
|-------------------------------------------------|----------------------------------------------------|
|-------------------------------------------------|----------------------------------------------------|
|-------------------------------------------------|----------------------------------------------------|


   E     E     E     E     E     E      E      E       E     E     E     E     E     E      E      E
|---------------------------------------------------|---------------------------------------------------|
|---------------------------------------------------|---------------------------------------------------|
|-------------------10------------------------10----|-------------------10------------------------10----|
|-10----12----13----------10----12-----13-----------|-10----12----13----------10----12-----13-----------|
|---------------------------------------------------|---------------------------------------------------|
|---------------------------------------------------|---------------------------------------------------|
|
|  |---3----|  |---3----|  |---3----|   |----3----|    |---3----|  |---3----|  |---3----|   |----3----|
|  E  E     E  E  E     E  E  E     E  +E   E     E    E  E     E  E  E     E  E  E     E  +E   E     E
|---------------------------------------------------|---------------------------------------------------|
|---------------------------------------------------|---------------------------------------------------|
|---------------------------------------------------|---------------------------------------------------|
|-12-12----12-11-11----11-12-12----12-(12)-13----13-|-12-12----12-11-11----11-12-12----12-(12)-13----13-|
|---------------------------------------------------|---------------------------------------------------|
|---------------------------------------------------|---------------------------------------------------|


   E  E  E  E  E  E  E  E    E E  E  E  E  E  E E
|-------------------------|--------------------------|
|-------------------------|--------------------------|
|----------10----------10-|--------------------------|
|-10-12-13----10-12-13----|-10-9-10-12-13-12-10-9----|
|-------------------------|--------------------------|
|-------------------------|--------------------------|
|
|  W                         W
|-------------------------|--------------------------|
|-------------------------|--------------------------|
|-------------------------|--------------------------|
|-10----------------------|--9-----------------------|
|-------------------------|--------------------------|
|-------------------------|--------------------------|


   E E +S   S  S  S  E E +S   S  S  S    E E +S   S  S  S  E E +S   S  S  S
|-------------------------------------|-------------------------------------|
|-------------------------------------|-------------------------------------|
|-------------------------------------|-------------------------------------|
|-10-9-(9)-10-10-10-10-9-(9)-10-10-10-|-10-9-(9)-10-10-10-10-9-(9)-10-10-10-|
|-------------------------------------|-------------------------------------|
|-------------------------------------|-------------------------------------|
|
|  Q    E      E     Q    E      E       Q    E      E     Q    E      E
|-------------------------------------|-------------------------------------|
|-------------------------------------|-------------------------------------|
|-------------------------------------|-------------------------------------|
|-10---10-----10-----9----9------9----|--8----8------8-----7----7------7----|
|-------------------------------------|-------------------------------------|
|-------------------------------------|-------------------------------------|


   E E +S   S  S  S  E E +S   S  S  S    E E +S   S  S  S  E E +S   S  S  S
|-------------------------------------|----------------------------------------|
|-------------------------------------|----------------------------------------|
|-------------------------------------|----------------------------------------|
|-10-9-(9)-10-10-10-10-9-(9)-10-10-10-|-10-9-(9)-10-10-10-10-9-(9)-10-10-10----|
|-------------------------------------|----------------------------------------|
|-------------------------------------|----------------------------------------|
|
|  Q    E      E     Q    E      E       E E  E      E     E E  E      E
|-------------------------------------|----------------------------------------|
|-------------------------------------|----------------------------------------|
|-------------------------------------|--8-8--8------8-----8-8--8------8-------|
|--6----6------6-----8----8------8----|----------------------------------------|
|-------------------------------------|----------------------------------------|
|-------------------------------------|----------------------------------------|


   E E +S   S  S  S  E E +S   S  S  S    E E +S   S  S  S  E E +S   S  S  S
|-------------------------------------|-------------------------------------|
|-------------------------------------|-------------------------------------|
|-------------------------------------|-------------------------------------|
|-10-9-(9)-10-10-10-10-9-(9)-10-10-10-|-10-9-(9)-10-10-10-10-9-(9)-10-10-10-|
|-------------------------------------|-------------------------------------|
|-------------------------------------|-------------------------------------|
|
|  Q    E      E     Q    E      E       Q    E      E     Q    E      E
|-------------------------------------|-------------------------------------|
|-------------------------------------|-------------------------------------|
|-------------------------------------|-------------------------------------|
|-10---10-----10-----9----9------9----|--8----8------8-----7----7------7----|
|-------------------------------------|-------------------------------------|
|-------------------------------------|-------------------------------------|


   E E +S   S  S  S  E E +S   S  S  S    E  E  E  E  E  E  E  E
|-------------------------------------|--------------------------||
|-------------------------------------|-------------------------o||
|-------------------------------------|--------------------------||
|-10-9-(9)-10-10-10-10-9-(9)-10-10-10-|-13-12-10--9-13-12-10--9--||
|-------------------------------------|-------------------------o||
|-------------------------------------|--------------------------||
|
|  Q    E      E     Q    E      E       E  E  E  E  E  E  E  E
|-------------------------------------|--------------------------||
|-------------------------------------|-------------------------o||
|-------------------------------------|--------------------------||
|--6----6------6-----8----8------8----|-10--7-------10--7--------||
|-------------------------------------|-------10----------10----o||
|-------------------------------------|----------11----------11--||



Suggest correction
Give kudos to tab author, rate the tab!
1 2 3 4 5
comments
print report bad tab
guest
You may want to rate the tab now too:
select rating
Wanna post a correction for this tab? Suggest correction