Oops, an error
Loading. Please wait.

Mega Man 3 - Gemini Man Tab

version 1
version 1

Whole song

Interactive

4 views 1 this week
no commentswrite comment
1 2 3 4 5
3 more votes to show rating
add to favorites
launch autoscroll
font size
0
reset
how to read this tab
guitar tuner
Autoscroll
slow
fast
+/-
esc
set tempo
stop
Help us to improve Ultimate-Guitar.com Take our survey!
×
Author
Difficulty
intermediate
Megaman 3 (NES) - Geminiman

Gtr I (E A D G B E) - 'Squarewave 1'
Gtr II (E A D G B E) - 'Squarewave 2'

     Q=200
     Gtr I
      Q   E  Q   Q   E    Q   E  Q   Q   E
e||---------15--15-----|--------16--16-----|
B||o-----16------------|-----15------------|
G||--17-------------17-|-16-------------16-|
D||--------------------|-------------------|
A||o-------------------|-------------------|
E||--------------------|-------------------|
|
 |   Gtr II
 |    ~~~~~~~~~~~~~~~~~~~~~~~~~~~~~~~~~~~~~~
 |    W                   W
e||--15----------------|-14----------------|
B||o-------------------|-------------------|
G||--------------------|-------------------|
D||--------------------|-------------------|
A||o-------------------|-------------------|
E||--------------------|-------------------|


    Q   E  Q   Q   E    Q   E  Q   Q   E
e|--------15--15-----|--------16--16----|
B|-----16------------|-----15-----------|
G|-17-------------17-|-16-------------16|
D|-------------------|------------------|
A|-------------------|------------------|
E|-------------------|------------------|
|
 |~~~~~~~~~~~~~~~~~~~~~~~~
 |  W                   W
e|-15----------------|-14---------------|
B|-------------------|------------------|
G|-------------------|------------------|
D|-------------------|------------------|
A|-------------------|------------------|
E|-------------------|------------------|


    +E   E  E  Q   Q   E    +E.  S  S  S E  Q   E  E
e|-----------------------|------15-------------------|
B|---------16-18--18--18-|-(18)----18-16---18--16-18-|
G|-(16)-17---------------|---------------------------|
D|-----------------------|---------------------------|
A|-----------------------|---------------------------|
E|-----------------------|---------------------------|
|
 |   E   E  E  Q   Q   E    +E.  S  S  S E  Q   E  E
e|--14-------------------|---------------------------|
B|---------13-13--13--13-|-(13)-13-12-11---13--11-13-|
G|------12---------------|---------------------------|
D|-----------------------|---------------------------|
A|-----------------------|---------------------------|
E|-----------------------|---------------------------|


    +E   Q.    Q   E  E    +H.       +E   +T   T  T  T
e|----------------------|---------------------------------|
B|-(18)-16----18--18-16-|-(16)------(16)-(16)-15-14-13----|
G|----------------------|---------------------------------|
D|----------------------|---------------------------------|
A|----------------------|---------------------------------|
E|----------------------|---------------------------------|
|
 |  +E   Q.    Q   E  E    +H.       +E    T   T  T  T
e|----------------------|---------------------------------|
B|-(13)-11----13--13-11-|-(11)------(11)--11--10--9--8----|
G|----------------------|---------------------------------|
D|----------------------|---------------------------------|
A|----------------------|---------------------------------|
E|----------------------|---------------------------------|


   E  E  E  Q   Q   E    +E.  S  S  S E  Q   E  E
e|--------------------|------15-------------------|
B|------16-18--18--18-|-(18)----18-16---18--16-18-|
G|---17---------------|---------------------------|
D|--------------------|---------------------------|
A|--------------------|---------------------------|
E|--------------------|---------------------------|
|
 | E  E  E  Q   Q   E    +E.  S  S  S E  Q   E  E
e|--------------------|---------------------------|
B|------13-13--13--13-|-(13)-13-12-11---13--11-13-|
G|---12---------------|---------------------------|
D|--------------------|---------------------------|
A|--------------------|---------------------------|
E|--------------------|---------------------------|


    +E   Q.    Q   E  E    +H.       +E   +T   T  T  T
e|----------------------|------------------------------|
B|-(18)-16----18--18-16-|-(16)------(16)-(16)-15-14-13-|
G|----------------------|------------------------------|
D|----------------------|------------------------------|
A|----------------------|------------------------------|
E|----------------------|------------------------------|
|
 |  +E   Q.    Q   E  E    +H.       +E    T   T  T  T
e|----------------------|------------------------------|
B|-(13)-11----13--13-11-|-(11)------(11)--11--10--9--8-|
G|----------------------|------------------------------|
D|----------------------|------------------------------|
A|----------------------|------------------------------|
E|----------------------|------------------------------|


   E  E  E  Q   Q   E    +E.  S  S  S E  Q   E  E
e|--------------------|------15-------------------|
B|------16-18--18--18-|-(18)----18-16---18--16-18-|
G|---17---------------|---------------------------|
D|--------------------|---------------------------|
A|--------------------|---------------------------|
E|--------------------|---------------------------|
|
 | E  E  E  Q   Q   E    +E.  S  S  S E  Q   E  E
e|--------------------|---------------------------|
B|------13-13--13--13-|-(13)-13-12-11---13--11-13-|
G|---12---------------|---------------------------|
D|--------------------|---------------------------|
A|--------------------|---------------------------|
E|--------------------|---------------------------|


    +E   Q.    Q   E  E    +H.       +E   +T   T  T  T
e|----------------------|------------------------------|
B|-(18)-16----18--18-16-|-(16)------(16)-(16)-15-14-13-|
G|----------------------|------------------------------|
D|----------------------|------------------------------|
A|----------------------|------------------------------|
E|----------------------|------------------------------|
|
 |  +E   Q.    Q   E  E    +H.       +E    T   T  T  T
e|----------------------|------------------------------|
B|-(13)-11----13--13-11-|-(11)------(11)--11--10--9--8-|
G|----------------------|------------------------------|
D|----------------------|------------------------------|
A|----------------------|------------------------------|
E|----------------------|------------------------------|


   E  E  E  Q   Q   E    +E.  S  S  S E  Q   E  E
e|--------------------|------15-------------------|
B|------16-18--18--18-|-(18)----18-16---18--16-18-|
G|---17---------------|---------------------------|
D|--------------------|---------------------------|
A|--------------------|---------------------------|
E|--------------------|---------------------------|
|
 | E  E  E  Q   Q   E    +E.  S  S  S E  Q   E  E
e|--------------------|---------------------------|
B|------13-13--13--13-|-(13)-13-12-11---13--11-13-|
G|---12---------------|---------------------------|
D|--------------------|---------------------------|
A|--------------------|---------------------------|
E|--------------------|---------------------------|


    +E   Q.    Q   +E   E    +H.      Q
e|------------16--(16)-15-|-(15)----------|
B|-(18)-16----------------|---------------|
G|------------------------|---------------|
D|------------------------|---------------|
A|------------------------|---------------|
E|------------------------|---------------|
|
 |                            ~~~~
 |  +E   Q.    Q    E   E    +W
e|------------------------|---------------|
B|-(13)-11----13---13--12-|-(12)----------|
G|------------------------|---------------|
D|------------------------|---------------|
A|------------------------|---------------|
E|------------------------|---------------|


    ~~~~~~~~~~~~~~~~~~~~~~~~~~~~~~               ~~~~
    W            W            +H.       E  E     W
e|-----------|-------------|-----------------|---------|
B|-16--------|--18---------|-(18)------16-18-|--16-----|
G|-----------|-------------|-----------------|---------|
D|-----------|-------------|-----------------|---------|
A|-----------|-------------|-----------------|---------|
E|-----------|-------------|-----------------|---------|
|
 |  ~~~~~~~~~~~~~~~~~~~~~~~~~~~~~~~~~~~~~~~~~~~~~~~~
 |  W           +W             W                +W
e|-----------|-------------|-----------------|---------|
B|-----------|-------------|--14-------------|-(14)----|
G|-12--------|-(12)--------|-----------------|---------|
D|-----------|-------------|-----------------|---------|
A|-----------|-------------|-----------------|---------|
E|-----------|-------------|-----------------|---------|


    ~~~~~~~~~~~~~~~~~~~~~~~~~~~~~~~~~~~~~~~~~~~~~~~~~~~~~~~~~~~~~~~~
    W                     W                        W            +W
e|---------------------|-----------------------|-------------|--------------|
B|-16------------------|-----------------------|-------------|--------------|
G|---------------------|-17--------------------|-------------|--------------|
D|---------------------|-----------------------|--17---------|-(17)---------|
A|---------------------|-----------------------|-------------|--------------|
E|---------------------|-----------------------|-------------|--------------|
|
|                                                 ~~~~~~~~~~~~~~~~~
|                            |--3--|
|  Q   E  E  E  E  Q     Q   E  E  E  Q  E  E    +W            +H.      Q
|-----------------10--|-11--10-11-10----------|-------------|--------------|
|-----------11-13-----|--------------13-12-13-|-(13)--------|-(13)---------|
|-----12-13-----------|-----------------------|-------------|--------------|
|---------------------|-----------------------|-------------|--------------|
|---------------------|-----------------------|-------------|--------------|
|---------------------|-----------------------|-------------|--------------|


    W            W            W           +H.       E  E
e|-----------|-------------|-----------|-----------------|
B|-----------|--16---------|-18--------|-(18)------16-18-|
G|-17--------|-------------|-----------|-----------------|
D|-----------|-------------|-----------|-----------------|
A|-----------|-------------|-----------|-----------------|
E|-----------|-------------|-----------|-----------------|
|
 |  ~~~~~~~~~~~~~~~~~~~~~~~~~~~~~~~~~~~~~~~~~~
 |  W           +W            W           +W
e|-----------|-------------|-----------|-----------------|
B|-----------|-------------|-14--------|-(14)------------|
G|-12--------|-(12)--------|-----------|-----------------|
D|-----------|-------------|-----------|-----------------|
A|-----------|-------------|-----------|-----------------|
E|-----------|-------------|-----------|-----------------|


                                                    ~~~~~~~~~~~~~~~~~
    W                     W                         W            +W
e|---------------------|------------------------|-------------|---------------|
B|-16------------------|------------------------|-------------|---------------|
G|---------------------|-17---------------------|-------------|---------------|
D|---------------------|------------------------|--17---------|-(17)----------|
A|---------------------|------------------------|-------------|---------------|
E|---------------------|------------------------|-------------|---------------|
|
|                                                  ~~~~
|                            |--3--|
|  Q   E  E  E  E  Q     Q   E  E  E  Q   E  E    +W            +H.      Q
|-----------------10--|-11--10-11-10-----------|-------------|---------------|
|-----------11-13-----|--------------13--12-13-|-(13)--------|-(13)----------|
|-----12-13-----------|------------------------|-------------|---------------|
|---------------------|------------------------|-------------|---------------|
|---------------------|------------------------|-------------|---------------|
|---------------------|------------------------|-------------|---------------|


    W           W           W           +H.       +E   E
e|-----------|-16--------|-16--------|-(16)------(16)-18-|
B|-18--------|-----------|-----------|-------------------|
G|-----------|-----------|-----------|-------------------|
D|-----------|-----------|-----------|-------------------|
A|-----------|-----------|-----------|-------------------|
E|-----------|-----------|-----------|-------------------|
|
 |                          ~~~~~~~~~~~~~~~~
 |  W           W           W           +W
e|-----------|-13--------|-14--------|-(14)--------------|
B|-13--------|-----------|-----------|-------------------|
G|-----------|-----------|-----------|-------------------|
D|-----------|-----------|-----------|-------------------|
A|-----------|-----------|-----------|-------------------|
E|-----------|-----------|-----------|-------------------|


    W                     +H      H       W             W
e|-20------------------|-(20)----23----|-22----------|-18----------|
B|---------------------|---------------|-------------|-------------|
G|---------------------|---------------|-------------|-------------|
D|---------------------|---------------|-------------|-------------|
A|---------------------|---------------|-------------|-------------|
E|---------------------|---------------|-------------|-------------|
|
 |                         ~~~~
 |  E  E  E  Q   E  Q     +W              H.      Q     H     H
e|---------------------|---------------|-------------|-------------|
B|-------11-13--11-----|---------------|-------------|-------------|
G|-12-13-----------13--|-(13)----------|-12----------|-------------|
D|---------------------|---------------|-------------|-13----10----|
A|---------------------|---------------|-------------|-------------|
E|---------------------|---------------|-------------|-------------|


    ~~~~~~~~~~~~~~~~~~~~~~~~~~~~~~~~~~~~~~
    W                 +W
e|-20--------------|-(20)----------------|
B|-----------------|---------------------|
G|-----------------|---------------------|
D|-----------------|---------------------|
A|-----------------|---------------------|
E|-----------------|---------------------|
|
 |  Q   Q   Q   Q      E   Q   Q   Q   E
e|-----------------|--------------11--13-|
B|-----------------|--11--13--14---------|
G|-----10--12--13--|---------------------|
D|-----------------|---------------------|
A|-----------------|---------------------|
E|-----------------|---------------------|


  ~~~~~~
    +W                      H     Q   E  E
e|-(20)------------------|-----------18----|
B|-----------------------|--------------21-|
G|-----------------------|-----------------|
D|-----------------------|-----------------|
A|-----------------------|-----------------|
E|-----------------------|-----------------|
|
 |  +E   E  Q   E  Q   E    H.        E  E
e|-(13)-11-13--11-13--11-|-13--------11----|
B|-----------------------|--------------14-|
G|-----------------------|-----------------|
D|-----------------------|-----------------|
A|-----------------------|-----------------|
E|-----------------------|-----------------|


    Q   E  Q   Q   E     S   S  S  S E  Q    Q   E
e|-------------------|-----------------------------|
B|-20-----18--18-----|--16--18-16------18---18--18-|
G|-----17---------17-|------------17---------------|
D|-------------------|-----------------------------|
A|-------------------|-----------------------------|
E|-------------------|-----------------------------|
|
 |  ~~~~~~~~~~~~~~~~~~~~~~~~
 |  W                   +H.               Q
e|-------------------|-----------------------------|
B|-13----------------|-(13)------------------------|
G|-------------------|-----------------------------|
D|-------------------|-----------------------------|
A|-------------------|-----------------------------|
E|-------------------|-----------------------------|


    Q   E  Q   Q   E    S  S  S  S E  Q   Q   E
e|-----20-25--25--25-|-23-25-23-20---25--25--25--||
B|-------------------|--------------------------o||
G|-17----------------|---------------------------||
D|-------------------|---------------------------||
A|-------------------|--------------------------o||
E|-------------------|---------------------------||
|
 |  Q   E  Q   Q   E    S  S  S  S E  Q   Q   E
e|-------------------|---------------------------||
B|-------------------|--------------------------o||
G|--------10--10-----|--8-10--8------10--10--10--||
D|-10--13---------10-|----------10---------------||
A|-------------------|--------------------------o||
E|-------------------|---------------------------||
Suggest correction
Give kudos to tab author, rate the tab!
1 2 3 4 5
comments
print report bad tab
guest
You may want to rate the tab now too:
select rating
Wanna post a correction for this tab? Suggest correction