Oops, an error
Loading. Please wait.

Mega Man 3 - Hard Man Bass Tab

version 1
version 1

Whole song

Interactive

10 views 1 this week
no commentswrite comment
1 2 3 4 5
3 more votes to show rating
add to favorites
launch autoscroll
font size
0
reset
guitar tuner
Autoscroll
slow
fast
+/-
esc
set tempo
stop
Help us to improve Ultimate-Guitar.com Take our survey!
×
Author
Difficulty
intermediate
#----------------------------------PLEASE NOTE---------------------------------#
#This file is the author's own work and represents their interpretation of the #
#song. You may only use this file for private study, scholarship, or research. #
#------------------------------------------------------------------------------##

Megaman 3 (NES) - Hardman...on bass!!!

Gtr I (E A D G) - 'Untitled'

    Q=150
    Gtr I
    E E  E. S +S  E. E E   E E  E. S +S  E. E E
G|-----------------------|----------------------|
D|o-7--------------------|-7--------------------|
A|o-----10--9-(9)-9--8-7-|-----10--9-(9)-9--8-7-|
E|-----------------------|----------------------|


   E E E. S E Q  E   E E S S S S +H
G|-----------------|-------------------|
D|-7---5--7-5-7--5-|-----------5-(5)---|
A|-----------------|-5-5-8-8-8---------|
E|-----------------|-------------------|


   E E  E. S +S  E. E E   E E  E. S +S  E. E E
G|----------------------|----------------------|
D|-7--------------------|-7--------------------|
A|-----10--9-(9)-9--8-7-|-----10--9-(9)-9--8-7-|
E|----------------------|----------------------|


   E E E. S E Q  E   E E S S S S +H
G|-----------------|--------------------|
D|-7---5--7-5-7--5-|-----------7-(7)----|
A|-----------------|-7-7-7-7-7----------|
E|-----------------|--------------------|


   S S Q  S S Q  E S S   S S Q  S S Q  E S S
G|---------------------|---------------------|
D|-7-7----7-7------7-6-|-5-5----5-5------5---|
A|---------------------|-------------------8-|
E|---------------------|---------------------|


   S S Q  S S +S  S S S S S S S   S S Q  S S +S  S S S S S S  S
G|----------------7-----7---7-9-|----------------7-----7---7-10--|
D|------------------------------|--------------------------------|
A|-7-7----7-7-(7)---7-7---7-----|-8-8----8-8-(8)---8-8---8-------|
E|------------------------------|--------------------------------|


   S S Q  S S Q  E S S   S S Q  S S Q  E S S
G|---------------------|---------------------|
D|-7-7----7-7------7-6-|-5-5----5-5------5---|
A|---------------------|-------------------8-|
E|---------------------|---------------------|


   S S Q  S S +S  S S S S S S S   S S Q  S S +S  S S S S S S  S
G|----------------7-----7---7-9-|----------------7-----7---7-10--|
D|------------------------------|--------------------------------|
A|-7-7----7-7-(7)---7-7---7-----|-8-8----8-8-(8)---8-8---8-------|
E|------------------------------|--------------------------------|


    H    H       H     H       E  S  S  S  S  E  E.  S  E  S  S
G|------------|-------12----|-10-10-10----10-10-10--10-10-10-10-|
D|-------9----|-12----------|----------12-----------------------|
A|-10---------|-------------|-----------------------------------|
E|------------|-------------|-----------------------------------|


    E  S  S  S  S  E  E.  S  E  S  S
G|-10-10-10----10-10-10--10-10-10-10-|
D|----------12-----------------------|
A|-----------------------------------|
E|-----------------------------------|


    S  S  E  S  S  E  E.  S  E  E    S  S  E  S  S  E  E.  S  E  E
G|----------15--------------17----|----------19--------------19----|
D|--------------------------------|--------------------------------|
A|-13-12-13----13-15-15--------15-|-17-15-17----17-17-17--15----15-|
E|-----------------------17-------|--------------------------------|


    S  S  E  S  S  E  E.  S  E  E    S  S  E  S  S  E  E.  S  E  E
G|----------15--------------17----|----------19--------------19-----|
D|--------------------------------|---------------------------------|
A|-13-12-13----13-15-15--------15-|-17-15-17----17-17-17--15----15--|
E|-----------------------17-------|---------------------------------|


    S  S  E  S  S  E  E.  S  E  E    S  S  E  S  S  E  E.  S  E  E
G|----------15--------------17----|----------19--------------19----|
D|--------------------------------|--------------------------------|
A|-13-12-13----13-15-15--------15-|-17-15-17----17-17-17--15----15-|
E|-----------------------17-------|--------------------------------|


    S  S  E  S  S  E  E.  S  E  E    S  S  E  S  S  E  +S   S  E  E  S  S
G|----------15--------------17----|----------19------------------------------||
D|--------------------------------|-----------------------------------------o||
A|-13-12-13----13-15-15--------15-|-17-15-17----17-17-(17)-18-18-18-18-18---o||
E|-----------------------17-------|------------------------------------------||



************************************

| (n)  Ghost note
| o    reprise 

************************************
Suggest correction
Give kudos to tab author, rate the tab!
1 2 3 4 5
comments
print report bad tab
guest
You may want to rate the tab now too:
select rating
Wanna post a correction for this tab? Suggest correction