Oops, an error
Loading. Please wait.

Mega Man 3 - Hard Man Tab

version 1
version 1

Whole song

Interactive

10 views 1 this week
no commentswrite comment
1 2 3 4 5
3 more votes to show rating
add to favorites
launch autoscroll
font size
0
reset
how to read this tab
guitar tuner
Autoscroll
slow
fast
+/-
esc
set tempo
stop
Help us to improve Ultimate-Guitar.com Take our survey!
×
Author
Difficulty
advanced
#----------------------------------PLEASE NOTE---------------------------------#
#This file is the author's own work and represents their interpretation of the #
#song. You may only use this file for private study, scholarship, or research. #
#------------------------------------------------------------------------------##

Megaman 3 (NES) - Hardman

Gtr I (E A D G B E) - 'Sawtooth'
Gtr II (E A D G B E) - 'Squarewave'

     Q=150
     Gtr I
      E  E  S  S  E  E  Q   S  S    E  E  S  S  E  E  Q   S  S
e||--------------10-12-10--------|-------------10-12-10--------|
B||o-13-13-13-10-----------13-12-|-13-13-13-10-----------13-12-|
G||------------------------------|-----------------------------|
D||------------------------------|-----------------------------|
A||o-----------------------------|-----------------------------|
E||------------------------------|-----------------------------|
 |
 |   Gtr II
 |    E  E  S  S  E  E  Q   S  S    E  E  S  S  E  E  Q   S  S
e||------------------------------|-----------------------------|
B||o-10-10-----------------------|-10-10-----------------------|
G||--------10-10-12-12-12--12-12-|-------10-10-12-12-12--12-12-|
D||------------------------------|-----------------------------|
A||o-----------------------------|-----------------------------|
E||------------------------------|-----------------------------|


    E  E  S  S  E  E  Q   E    E  E  S  S  E  +H
e|--------------------------|----------12-----------|
B|-10-13-12----10-13-12-----|-------10----12-(12)---|
G|----------12-----------12-|-10-12-----------------|
D|--------------------------|-----------------------|
A|--------------------------|-----------------------|
E|--------------------------|-----------------------|
 |
 |  W                          E  E  S  S  E  +H
e|--------------------------|-----------------------|
B|--------------------------|-----------------------|
G|--------------------------|-------10-10-12-(12)---|
D|--------------------------|-12-12-----------------|
A|--------------------------|-----------------------|
E|--------------------------|-----------------------|


    E  E  S  S  E  E  Q   S  S    E  E  S  S  E  E  Q   S  S
e|-------------10-12-10--------|-------------10-12-10--------|
B|-13-13-13-10-----------13-12-|-13-13-13-10-----------13-12-|
G|-----------------------------|-----------------------------|
D|-----------------------------|-----------------------------|
A|-----------------------------|-----------------------------|
E|-----------------------------|-----------------------------|
 |
 |  E  E  S  S  E  E  Q   S  S    E  E  S  S  E  E  Q   S  S
e|-----------------------------|-----------------------------|
B|-10-10-----------------------|-10-10-----------------------|
G|-------10-10-12-12-12--12-12-|-------10-10-12-12-12--12-12-|
D|-----------------------------|-----------------------------|
A|-----------------------------|-----------------------------|
E|-----------------------------|-----------------------------|


    E  E  S  S  E  E.  S  E  E    S  S  S  S  S  S  S  S  +H
e|----------10--------12-10-13-|-------17-19-20-19----17-(17)----|
B|-10-13-12----13-13-----------|-17-20-------------20------------|
G|-----------------------------|---------------------------------|
D|-----------------------------|---------------------------------|
A|-----------------------------|---------------------------------|
E|-----------------------------|---------------------------------|
 |
 |  W                             E     E     S  S  E     +H
e|-----------------------------|---------------------------------|
B|-----------------------------|-------------------10----(10)----|
G|-----------------------------|--9-----9-----9--9---------------|
D|-----------------------------|---------------------------------|
A|-----------------------------|---------------------------------|
E|-----------------------------|---------------------------------|


    E  E  S   S   E  +Q       S  S  S  S    Q    E.     S  +Q.        +S   S
e|------------------------------------12-|-----------------------------------|
B|------------------------------12-13----|-15---12---------------------------|
G|-14-12-14--12--14-(14)-----14----------|-------------12-(12)-------(12)-12-|
D|---------------------------------------|-----------------------------------|
A|---------------------------------------|-----------------------------------|
E|---------------------------------------|-----------------------------------|
 |
 |  E  E +S   E.      S  S E  Q             E E +S  E.      S  S E Q
e|---------------------------------------|-----------------------------------|
B|---------------------------------------|-----------------------------------|
G|---------------------------------------|-----------------------------------|
D|-----7-(7)--7-------7--5-7-------------|----7-(7)-7-------7--5-7-----------|
A|---------------------------------------|-----------------------------------|
E|---------------------------------------|-----------------------------------|


    E  E  S   S   E  +Q       S  S  S  S    E  E  S   S   E  +H
e|---------------------------12----------|--------------------------------|
B|-15-15-13--12--15-(15)--------15-13-12-|--------------------------------|
G|---------------------------------------|-14-14-14--12--14-(14)----------|
D|---------------------------------------|--------------------------------|
A|---------------------------------------|--------------------------------|
E|---------------------------------------|--------------------------------|
 |
 |  E  E +S   E.      S  S E  Q             E  E +S   E.      S  S E Q
e|---------------------------------------|--------------------------------|
B|---------------------------------------|--------------------------------|
G|---------------------------------------|--------------------------------|
D|-----5-(5)--5-------5----5-------------|-----7-(7)--7-------7--5-7------|
A|-----------------------7---------------|--------------------------------|
E|---------------------------------------|--------------------------------|


    E  E  S   S   E  +Q       S  S  S  S    Q    E.     S  +Q.        +S   S
e|------------------------------------12-|-----------------------------------|
B|------------------------------12-13----|-15---12---------------------------|
G|-14-12-14--12--14-(14)-----14----------|-------------12-(12)-------(12)-12-|
D|---------------------------------------|-----------------------------------|
A|---------------------------------------|-----------------------------------|
E|---------------------------------------|-----------------------------------|
 |
 |  E  E +S   E.      S  S E  Q             E E +S  E.      S  S E Q
e|---------------------------------------|-----------------------------------|
B|---------------------------------------|-----------------------------------|
G|---------------------------------------|-----------------------------------|
D|-----7-(7)--7-------7--5-7-------------|----7-(7)-7-------7--5-7-----------|
A|---------------------------------------|-----------------------------------|
E|---------------------------------------|-----------------------------------|


    E  E  S   S   E  +Q       S  S  S  S    E  E  S   S   E  +H
e|---------------------------12----------|--------------------------------|
B|-15-15-13--12--15-(15)--------15-13-12-|--------------------------------|
G|---------------------------------------|-14-14-14--12--14-(14)----------|
D|---------------------------------------|--------------------------------|
A|---------------------------------------|--------------------------------|
E|---------------------------------------|--------------------------------|
 |
 |  E  E +S   E.      S  S E  Q             E  E +S   E.      S  S E Q
e|---------------------------------------|--------------------------------|
B|---------------------------------------|--------------------------------|
G|---------------------------------------|--------------------------------|
D|-----5-(5)--5-------5----5-------------|-----7-(7)--7-------7--5-7------|
A|-----------------------7---------------|--------------------------------|
E|---------------------------------------|--------------------------------|


    E  E  E  E  E.  S  +Q      E  E  E  E  E.  S  +Q
e|--------------------------|---------------------------------------------|
B|-12-13-12----12-----------|-12-13-12----12------------------------------|
G|----------14-----12-(12)--|----------14-----12-(12)---------------------|
D|--------------------------|---------------------------------------------|
A|--------------------------|---------------------------------------------|
E|--------------------------|---------------------------------------------|
 |
 |  H           H              H           Q       T   T  T  T  T T  T  T
e|--------------------------|---------------------15----------------------|
B|--------------------------|-------------------------15-12---------------|
G|--------------------------|-------------12----------------12------------|
D|--------------9-----------|-12-------------------------------12-9-------|
A|-10-----------------------|---------------------------------------10----|
E|--------------------------|------------------------------------------10-|


    E.        S  +E      E     E.        S  +E      E
e|-------------------------------------------------------|
B|-------------------------------------------------------|
G|-12-------------------12----14--------12-(12)----14----|
D|-----------15-(15)-------------------------------------|
A|-------------------------------------------------------|
E|-------------------------------------------------------|
 |
 |  S   S  S  S   S   S  S  S  S   S  S  S   S   S  S  S
e|-----------17-------------------17------------------17-|
B|--------18-----20--18-------18-----20-18---------18----|
G|-16--19---------------16-19---------------16--19-------|
D|-------------------------------------------------------|
A|-------------------------------------------------------|
E|-------------------------------------------------------|


    E.        S  +E      E     E.        S  +E      E
e|---------------------------------------------------------|
B|-12-------------------12----13--------12-(12)----13------|
G|-----------14-(14)---------------------------------------|
D|---------------------------------------------------------|
A|---------------------------------------------------------|
E|---------------------------------------------------------|
 |
 |  S   S  S  S   S   S  S  S  S   S  S  S   S   S  S  S
e|-------------------17---------------------20--22-25-27---|
B|-20--18--------18-----20-18-----18-20-22-----------------|
G|--------16-19---------------19---------------------------|
D|---------------------------------------------------------|
A|---------------------------------------------------------|
E|---------------------------------------------------------|


    E  E  S  S  Q          E  E  E    E  E  S  S  E   S   S  E  E  E
e|----------17-15------------------|-----------------17--17-17-15----|
B|-15-15-18---------------18-17-15-|-18-17-15----15-(15)----------15-|
G|---------------------------------|----------16---------------------|
D|---------------------------------|---------------------------------|
A|---------------------------------|---------------------------------|
E|---------------------------------|---------------------------------|
 |
 |  E  E  E     E  +S   S  E  E  E    E  E  E     E  +S   S  E  E  E
e|---------------------------------|---------------------------------|
B|---------------------------------|---------------------------------|
G|---------------------------------|---------------------------------|
D|---------------------------------|-12-12-------12-(12)-12----12----|
A|-13-13-13----15-(15)-15-12-15-12-|-------15---------------------15-|
E|---------------------------------|---------------------------------|


    E  E  S  S  Q          E  E  E    E  E  S  S  E  +S   S  S  S  S  S  S  S
e|----------15-17---------15-17-18-|-20-18-17-15---------17-15----15-17--------|
B|-15-15-18------------------------|-------------18-(18)-------18----------15--|
G|---------------------------------|------------------------------------17-----|
D|---------------------------------|-------------------------------------------|
A|---------------------------------|-------------------------------------------|
E|---------------------------------|-------------------------------------------|
 |
 |  E  E  E     E  +S   S  E  E  E    E  E  E     E  +S   S  E     E     E
e|---------------------------------|-------------------------------------------|
B|---------------------------------|-------------------------------------------|
G|---------------------------------|-------------------------------------------|
D|---------------------------------|-12-12-------12-(12)-12-------12-----------|
A|-13-13-13----15-(15)-15-12-15-12-|-------15---------------------------15-----|
E|---------------------------------|-------------------------------------------|


    E  E  S  S  Q          E  E  E    E  E  S  S  E  +S   S  S  S  S  S  S  S
e|----------17-15------------------|------------------------------------------|
B|-15-15-18---------------18-17-15-|-18-17-15----15-(15)-15----15-18-17-15----|
G|---------------------------------|----------16------------16-------------16-|
D|---------------------------------|------------------------------------------|
A|---------------------------------|------------------------------------------|
E|---------------------------------|------------------------------------------|
 |
 |  E  E  E     E  +S   S  E  E  E    E  E  E     E  +S   S  E     E     E
e|---------------------------------|------------------------------------------|
B|---------------------------------|------------------------------------------|
G|---------------------------------|------------------------------------------|
D|---------------------------------|-12-12-------12-(12)-12-------12----------|
A|-13-13-13----15-(15)-15-12-15-12-|-------15---------------------------15----|
E|---------------------------------|------------------------------------------|


    E  E  S  S  Q          E  E  E    E  E  S  S  E  +S   S  E  E  S  S
e|-22-20-18-17------------20-22-24-|-25-24-22-20-22-(22)-20-20-20-20-20--||
B|-------------20------------------|------------------------------------o||
G|---------------------------------|-------------------------------------||
D|---------------------------------|-------------------------------------||
A|---------------------------------|------------------------------------o||
E|---------------------------------|-------------------------------------||
 |
 |  E  E  E     E  +S   S  E  E  E    E  E  S  S  E  +S   S  E  E  S  S
e|---------------------------------|-13-12-------------------------------||
B|-------13----13-(13)-13----13-15-|-------15-13-15-(15)-15-15-15-15-15-o||
G|------------------------14-------|-------------------------------------||
D|---------------------------------|-12-12-------12-(12)-13-13-13-13-13--||
A|-13-13-13----15-(15)-15-12-15-12-|----------15------------------------o||
E|---------------------------------|-------------------------------------||



************************************

| (n)  Ghost note
| o    reprise

************************************
Suggest correction
Give kudos to tab author, rate the tab!
1 2 3 4 5
comments
print report bad tab
guest
You may want to rate the tab now too:
select rating
Wanna post a correction for this tab? Suggest correction