Oops, an error
Loading. Please wait.

Mega Man 3 - Magnet Man Bass Tab

version 1
version 1

Whole song

Interactive

4 views 1 this week
no commentswrite comment
1 2 3 4 5
3 more votes to show rating
add to favorites
launch autoscroll
font size
0
reset
guitar tuner
Autoscroll
slow
fast
+/-
esc
set tempo
stop
Help us to improve Ultimate-Guitar.com Take our survey!
×
Author
Difficulty
intermediate
#----------------------------------PLEASE NOTE---------------------------------#
#This file is the author's own work and represents their interpretation of the #
#song. You may only use this file for private study, scholarship, or research. #
#------------------------------------------------------------------------------##

Megaman 3 (NES) - Magnetman...on bass!!!

Gtr I (B E A D G) - 'Untitled'

  Q=135
  Gtr I
  E E E E E E E E   E E E E E E  E E   E E  E E E E E E   E E E E E E  E E
G|-----------------|------------------|------------------|------------------|
D|---------7---7-9-|-----8---9-8------|-----11---9-------|-----8---9-8------|
A|-9---9-----------|---9---9-----11-9-|---9----9---7-8-9-|---9---9-----11-9-|
E|-----------------|------------------|------------------|------------------|
B|-----------------|------------------|------------------|------------------|


   E E  E E E E E E     E S S E S S E S S E S S
G|------------------||--------------------------|
D|-----11---9-------||o-------------------------|
A|---9----9---7-8-9-||--9-9-9-9-9-9-9-9-9-9-9-9-|
E|------------------||o-------------------------|
B|------------------||--------------------------|


   E S S E S S E S S E S S    E  S  S  E  S  S  E  S  S  E  S  S
G|-------------------------|-------------------------------------|
D|-9-9-9-9-9-9-9-9-9-9-9-9-|-11-11-11-11-11-11-11-11-11-11-11-11-|
A|-------------------------|-------------------------------------|
E|-------------------------|-------------------------------------|
B|-------------------------|-------------------------------------|


   E S S E S S E S S E S S   E S S E S S E S S E S S
G|-------------------------|-------------------------|
D|-------------------------|-9-9-9-9-9-9-9-9-9-9-9-9-|
A|-9-9-9-9-9-9-9-9-9-9-9-9-|-------------------------|
E|-------------------------|-------------------------|
B|-------------------------|-------------------------|


   E S S E S S E S S E S S    E  S  S  E  S  S  E  S  S  E  S  S
G|-------------------------|----------------------------------------|
D|-8-8-8-8-8-8-8-8-8-8-8-8-|----------------------------------------|
A|-------------------------|-11-11-11-11-11-11-11-11-11-11-11-11----|
E|-------------------------|----------------------------------------|
B|-------------------------|----------------------------------------|


    E  S  S  E  S  S  E  S  S  E  S  S   E S S E E E E E E
G|-------------------------------------|-------------------|
D|-11-11-11-11-11-11-11-11-11-11-11-11-|-------------------|
A|-------------------------------------|-9---9---9-9-8---9-|
E|-------------------------------------|---------------9---|
B|-------------------------------------|-------------------|


   E S S E E E E  E E    E S  S E  E  E E  E  E
G|--------------------|---------------------------|
D|-9---9---9-9-8------|---------------------------|
A|---------------11-9-|-----------------9-11------|
E|--------------------|-11---11---11-11------11---|
B|--------------------|---------------------------|


   E S S E E  E E E  E   E S S E E E E E  E
G|---------------------|--------------------|
D|-9---9---9-11-9-8----|--------------------|
A|------------------11-|-9---9---9-9-8---11-|
E|---------------------|---------------9----|
B|---------------------|--------------------|


   E S S E E E E  E E   E S S E E E E E  E
G|--------------------|--------------------|
D|-9---9---9-9-8------|--------------------|
A|---------------11-9-|-------------8-9-11-|
E|--------------------|-9---9---9-9--------|
B|--------------------|--------------------|


    E S  S E  E E  E E  E   S S E S S E E. S E E
G|------------------------|----------------------|
D|------------------------|-7-7-7-7-7-7-7--7-7-7-|
A|--------------9-11-9----|----------------------|
E|-11---11---11--------11-|----------------------|
B|------------------------|----------------------|


   S S E S S E E. S E E   S S E S S E +S  S E E S S
G|----------------------|----------------------------||
D|-9-9-9-9-9-9-9--9-9-9-|---------------------------o||
A|----------------------|-9-9-9-9-9-9-(9)-9-9-9-9-9--||
E|----------------------|---------------------------o||
B|----------------------|----------------------------||


************************************

| (n)  Ghost note
| o    reprise   

************************************
Suggest correction
Give kudos to tab author, rate the tab!
1 2 3 4 5
comments
print report bad tab
guest
You may want to rate the tab now too:
select rating
Wanna post a correction for this tab? Suggest correction