Oops, an error
Loading. Please wait.

Mega Man 3 - Magnet Man Tab

version 1
version 1

Whole song

Interactive

1 view 1 this week
no commentswrite comment
1 2 3 4 5
3 more votes to show rating
add to favorites
launch autoscroll
font size
0
reset
how to read this tab
guitar tuner
Autoscroll
slow
fast
+/-
esc
set tempo
stop
Help us to improve Ultimate-Guitar.com Take our survey!
×
Author
Difficulty
advanced
#----------------------------------PLEASE NOTE---------------------------------#
#This file is the author's own work and represents their interpretation of the #
#song. You may only use this file for private study, scholarship, or research. #
#------------------------------------------------------------------------------##

Megaman 3 (NES) - Magnetman

Gtr I (E A D G B E) - 'Sawtooth'
Gtr II (E A D G B E) - 'Squarewave'

   Q=135
   Gtr I
    E E  E E  E E  E  E   E  S  S  S  S E  S  S  S  S Q
e|-----------12---12-14-|--------------------------------|
B|-14---14--------------|---12-11-12-14---12-11-12-14----|
G|----------------------|--------------------------------|
D|----------------------|--------------------------------|
A|----------------------|--------------------------------|
E|----------------------|--------------------------------|
 |
 | Gtr II
 |  E E  E E  E E  E  E   E  S  S  S  S E  S  S  S  S Q
e|----------------------|--------------------------------|
B|-12---12---12---12-14-|--------------------------------|
G|----------------------|----9--8--9-11----9--8--9-11----|
D|----------------------|--------------------------------|
A|----------------------|--------------------------------|
E|----------------------|--------------------------------|


   E  S  S  S  S E  S  S  S  S Q     E.     S  +E   E  +Q.          E
e|--------------------------------|--------------------------------14----|
B|---12-11-12-14---12-11-12-14----|-11-----12-(12)-14-(14)---------------|
G|--------------------------------|--------------------------------------|
D|--------------------------------|--------------------------------------|
A|--------------------------------|--------------------------------------|
E|--------------------------------|--------------------------------------|
 |
 | E  S  S  S  S E  S  S  S  S Q     E   E      E   E   E.  S  +E   E
e|--------------------------------|------------17------------------------|
B|--------------------------------|-----19---------19--17--19-(19)-19----|
G|----9--8--9-11----9--8--9-11----|--------------------------------------|
D|--------------------------------|--------------------------------------|
A|--------------------------------|--------------------------------------|
E|--------------------------------|--------------------------------------|


    E  E  S  E  S  H         Q        E.       S  +Q.             E
e|-17-------------------||-----------13-------14-(14)---------------|
B|----19-17-19-19-19----||o-----------------------------------------|
G|----------------------||--15-----------------------------------15-|
D|----------------------||------------------------------------------|
A|----------------------||o-----------------------------------------|
E|----------------------||------------------------------------------|
 |
 |  E  E  S  E  S  H         E  S  S  S   S E      S   S  S  S Q
e|-17-------------------||------------------------------------------|
B|----19-17-19-19-19----||o-----------------------------------------|
G|----------------------||------------------------------------------|
D|----------------------||-----16-16-16-----------16--16-16---------|
A|----------------------||o--------------16-----------------16------|
E|----------------------||------------------------------------------|


    E  E     S  E    S  H                Q        E.       S  +Q.             S  S
e|------------------------------------|-16-------14-------13-(13)--------------------|
B|-15-14----14------------------------|--------------------------------------14------|
G|-------------16---16-16-------------|-----------------------------------------16---|
D|------------------------------------|----------------------------------------------|
A|------------------------------------|----------------------------------------------|
E|------------------------------------|----------------------------------------------|
 |
 |  E  S  S  S  S E     S  S  S  S Q     E  S  S  S   S E      S   S  S  S Q
e|------------------------------------|----------------------------------------------|
B|------------------------------------|----------------------------------------------|
G|------------------------------------|----------------------------------------------|
D|----16-16-16---------16-16-16-------|----16-16-16--18-------16--16-16-18-----------|
A|-------------14---------------14----|----------------------------------------------|
E|------------------------------------|----------------------------------------------|


    E  E     S  S  E  +H                 Q.    S  S  E.  S  +E   E
e|------------------------------------|-------------14-------------|
B|----------------14-(14)-------------|-15----15-17-----17-(17)-15-|
G|-15-15----15-16---------------------|----------------------------|
D|------------------------------------|----------------------------|
A|------------------------------------|----------------------------|
E|------------------------------------|----------------------------|
 |
 |  E  S  S  S  S  E   S   S  S  S Q     H           H
e|------------------------------------|----------------------------|
B|------------------------------------|----------------------------|
G|------------------------------------|----------------------------|
D|----16-16-16--------16--16-16-------|-16----------18-------------|
A|-------------16---------------16----|----------------------------|
E|------------------------------------|----------------------------|


    E.  S  +E   E  +H        E.     S  +E      Q        E     E  E
e|------------------------|----------------------------14----13----|
B|-14---------------------|--------14-(14)----16----------------16-|
G|-----15-(15)------------|-16-------------------------------------|
D|-------------16-(16)----|----------------------------------------|
A|------------------------|----------------------------------------|
E|------------------------|----------------------------------------|
 |
 |  H               H        E   S  S   S   S  E  S  S  S  S  Q
e|------------------------|----------------------------------------|
B|------------------------|----------------------------------------|
G|-15--------------16-----|--------15--16-----------15-16----------|
D|------------------------|-----18---------16----18-------16-------|
A|------------------------|----------------------------------------|
E|------------------------|----------------------------------------|


    E.     S  +E      E  +H              E     E     E     E     E.        S  +E      E
e|-13-----14-(14)----16-(16)----------|-------14----14----14----14--------13-(13)----------|
B|------------------------------------|----------------------------------------------14----|
G|------------------------------------|----------------------------------------------------|
D|------------------------------------|----------------------------------------------------|
A|------------------------------------|----------------------------------------------------|
E|------------------------------------|----------------------------------------------------|
 |
 |  E   S  S   S   S  E   E.  S  E  E    S  S  S  S  S  S  S  S  S   S  S  S   S   S  S  S
e|------------------------------------|-------------------21-21----------------------21-21-|
B|----------------14-14--14-----------|-------------19-19---------------------19--19-------|
G|--------15--16-------------16-15----|-------18-18--------------------18-18---------------|
D|-----18--------------------------18-|-16-16-------------------16--16---------------------|
A|------------------------------------|----------------------------------------------------|
E|------------------------------------|----------------------------------------------------|


   E    E     E     E     E.       S  +E      E       E     E     E     E     E.        S  +E      E
e|-------------------------------------------------|-------16----16----------18----------------------------|
B|-----17----17----17----17-------16-(16)----------|-------------------19--------------16-(16)----19-------|
G|-------------------------------------------16----|-------------------------------------------------------|
D|-------------------------------------------------|-------------------------------------------------------|
A|-------------------------------------------------|-------------------------------------------------------|
E|-------------------------------------------------|-------------------------------------------------------|
 |
 | S S  S  S  S  S  S  S  S  S  S  S   S   S  S  S    S  S  S  S  S  S  S  S  S   S  S  S   S   S  S  S
e|-----------------14-14---------------------14-14-|-------------------14-14----------------------14-14----|
B|-----------12-12--------------------12--12-------|-------------16-16---------------------16--16----------|
G|-----11-11-------------------11-11---------------|-------15-15--------------------15-15------------------|
D|-9-9--------------------9--9---------------------|-13-13-------------------13--13------------------------|
A|-------------------------------------------------|-------------------------------------------------------|
E|-------------------------------------------------|-------------------------------------------------------|


    +E     E     E     E     E.        S  +E      E       E     E     E     E     E.        S  +E      E
e|--------21----19----18-------------------------------|-------19----19----18-------------------------------|
B|-(19)---------------------21--------19-(19)----19----|-------------------------21--------19-(19)----19----|
G|-----------------------------------------------------|----------------------------------------------------|
D|-----------------------------------------------------|----------------------------------------------------|
A|-----------------------------------------------------|----------------------------------------------------|
E|-----------------------------------------------------|----------------------------------------------------|
 |
 |   S  S  S  S  S  S  S  S  S   S  S  S   S   S  S  S    S  S  S  S  S  S  S  S  S   S  S  S   S   S  S  S
e|--------------------14-14----------------------14-14-|-------------------21-21----------------------21-21-|
B|--------------12-12---------------------14--14-------|-------------19-19---------------------19--19-------|
G|--------11-11--------------------13-13---------------|-------18-18--------------------18-18---------------|
D|---9--9-------------------11--11---------------------|-16-16-------------------16--16---------------------|
A|-----------------------------------------------------|----------------------------------------------------|
E|-----------------------------------------------------|----------------------------------------------------|


   E    E     E     E     E.       S  +E      E       E     E     E     E     E.        S  +E      E
e|-----18----18----19----19------------------------|-------21----21----19----18----------------------------|
B|--------------------------------16-(16)----16----|-----------------------------------21-(21)----19-------|
G|-------------------------------------------------|-------------------------------------------------------|
D|-------------------------------------------------|-------------------------------------------------------|
A|-------------------------------------------------|-------------------------------------------------------|
E|-------------------------------------------------|-------------------------------------------------------|
 |
 | S S  S  S  S  S  S  S  S  S  S  S   S   S  S  S    S  S  S  S  S  S  S  S  S   S  S  S   S   S  S  S
e|-----------------14-14---------------------14-14-|-------------------14-14----------------------14-14----|
B|-----------12-12--------------------12--12-------|-------------14-14---------------------14--14----------|
G|-----11-11-------------------11-11---------------|-------13-13--------------------13-13------------------|
D|-9-9--------------------9--9---------------------|-11-11-------------------11--11------------------------|
A|-------------------------------------------------|-------------------------------------------------------|
E|-------------------------------------------------|-------------------------------------------------------|


    E     E     E     E     +Q            E     E       E     E  S  S  E  E  Q   S  S
e|-------------------18----(18)----------------------|-21----17----17-19-21-19--17-19-|
B|-21----19----21------------------------21----19----|----------19--------------------|
G|---------------------------------------------------|--------------------------------|
D|---------------------------------------------------|--------------------------------|
A|---------------------------------------------------|--------------------------------|
E|---------------------------------------------------|--------------------------------|
 |
 |  S  S  S  S  S  S  S  S   S   S  S  S  S  S  S  S    S  S  E  S  S  E  E  Q   S  S
e|-------------------14-14---------------------14-14-|--------------------------------|
B|-------------16-16---------------------16-16-------|--------------------------------|
G|-------15-15---------------------15-15-------------|-------------------14-13--------|
D|-13-13--------------------13--13-------------------|-16-16-14-16-14-16--------16-14-|
A|---------------------------------------------------|--------------------------------|
E|---------------------------------------------------|--------------------------------|


    E     E  S  S  E  E  Q   S  S    E     E  S  S  E  +S   S  E  E  S  S
e|-21----17----17-19-21-19--------|-----------------------------------------||
B|----------19-----------------17-|-19----17----17-19-(19)-19-19-19-19-19--o||
G|--------------------------18----|----------18-----------------------------||
D|--------------------------------|-----------------------------------------||
A|--------------------------------|----------------------------------------o||
E|--------------------------------|-----------------------------------------||
 |
 |  S  S  E  S  S  E  E  Q   S  S    S  S  E  S  S  E  +S   S  E  E  S  S
e|--------------------------------|-----------------------------------------||
B|--------------------------------|----------------------------------------o||
G|-------------------14-13--------|------------------------15-15-15-15-15---||
D|-16-16-14-16-14-16--------16-14-|-16-16-14-16-14-16-(16)------------------||
A|--------------------------------|----------------------------------------o||
E|--------------------------------|-----------------------------------------||


************************************

| (n)  Ghost note
| o    reprise
 
************************************
Suggest correction
Give kudos to tab author, rate the tab!
1 2 3 4 5
comments
print report bad tab
guest
You may want to rate the tab now too:
select rating
Wanna post a correction for this tab? Suggest correction