Oops, an error
Loading. Please wait.

Mega Man 3 - Needle Man Tab

16 views 1 this week
no commentswrite comment
1 2 3 4 5
3 more votes to show rating
add to favorites
launch autoscroll
font size
0
reset
how to read this tab
guitar tuner
Autoscroll
slow
fast
+/-
esc
set tempo
stop
Help us to improve Ultimate-Guitar.com Take our survey!
×
Author
Difficulty
advanced
Megaman 3 (NES) - Needleman

Gtr I (E A D G B E) - 'Squarewave 1'
Gtr II (E A D G B E) - 'Squarewave 2'
Gtr III (E A D G B E) - 'Sawtooth'

   Q=140
   Gtr I
   W          W          W          W
e|----------|----------|----------|------|
B|----------|----------|----------|------|
G|----------|----------|----------|------|
D|----------|----------|----------|------|
A|----------|----------|----------|------|
E|----------|----------|----------|------|
|
 | W          W          W          W
e|----------|----------|----------|------|
B|----------|----------|----------|------|
G|----------|----------|----------|------|
D|----------|----------|----------|------|
A|----------|----------|----------|------|
E|----------|----------|----------|------|


   Gtr I
    H.                        +E   E    W
e|-20------------------------(20)-18-|-21----------------------------|
B|-----------------------------------|-------------------------------|
G|-----------------------------------|-------------------------------|
D|-----------------------------------|-------------------------------|
A|-----------------------------------|-------------------------------|
E|-----------------------------------|-------------------------------|
|
 | Gtr II
 |  E   E E  S  S  +S   S  E   E   E    E  E E  S  S  +S   S  E E  E
e|-----------------------------------|-------------------------------|
B|-11-----9-10-11-(11)-11------9--10-|-11----9-10-11-(11)-11----9-10-|
G|-----10-----------------10---------|----10-----------------10------|
D|-----------------------------------|-------------------------------|
A|-----------------------------------|-------------------------------|
E|-----------------------------------|-------------------------------|


    H.                        +E   E    W
e|-20------------------------(20)-18-|-21-----------------------------|
B|-----------------------------------|--------------------------------|
G|-----------------------------------|--------------------------------|
D|-----------------------------------|--------------------------------|
A|-----------------------------------|--------------------------------|
E|-----------------------------------|--------------------------------|
|
 |  E   E E  S  S  +S   S  E   E   E    E  E E  S  S  +S   S  E E  E
e|-----------------------------------|--------------------------------|
B|-11-----9-10-11-(11)-11------9--10-|-11----9-10-11-(11)-11----9-10--|
G|-----10-----------------10---------|----10-----------------10-------|
D|-----------------------------------|--------------------------------|
A|-----------------------------------|--------------------------------|
E|-----------------------------------|--------------------------------|


    H.                        +E   E    W
e|-20------------------------(20)-18-|-21----------------------------|
B|-----------------------------------|-------------------------------|
G|-----------------------------------|-------------------------------|
D|-----------------------------------|-------------------------------|
A|-----------------------------------|-------------------------------|
E|-----------------------------------|-------------------------------|
|
 |  E   E E  S  S  +S   S  E   E   E    E  E E  S  S  +S   S  E E  E
e|-----------------------------------|-------------------------------|
B|-11-----9-10-11-(11)-11------9--10-|-11----9-10-11-(11)-11----9-10-|
G|-----10-----------------10---------|----10-----------------10------|
D|-----------------------------------|-------------------------------|
A|-----------------------------------|-------------------------------|
E|-----------------------------------|-------------------------------|


    +S   S  S  S  S  S  S  S  S  S  S  S  S  S  S  S
e|-(21)-18-16----16-------------------16-18-21-23-24b25==|
B|------------18----18-16-------16-18--------------------|
G|------------------------18-18--------------------------|
D|-------------------------------------------------------|
A|-------------------------------------------------------|
E|-------------------------------------------------------|
|
 |   S   S  S  S  S  S  S  S  S  S  S  S  S  S  S  S
e|---------------------------------------------16-18-----|
B|---------------------------------------16-18-----------|
G|------18-17-15-17-15-------------15-18-----------------|
D|---------------------18-15-15-18-----------------------|
A|-------------------------------------------------------|
E|-------------------------------------------------------|


    +H      +Q      +E      +S   +S
e|-(24)----(24)----(24)b25r(24)-(24)r------------------------|
B|-----------------------------------------------------------|
G|-----------------------------------------------------------|
D|-----------------------------------------------------------|
A|-----------------------------------------------------------|
E|-----------------------------------------------------------|
|
|           |---3---|       |----3----|  |--3--|  |--3--|
|  +H       S   S   S       S    S    S  S  S  S  S  S  S
|-(18)----------------------------------------------21-25---|
|---------------------------------------13-18-21-23---------|
|-------------------------------13---15---------------------|
|------------------11------15-------------------------------|
|----------11--13-------------------------------------------|
|-----------------------------------------------------------|


     Gtr III
      S  E.        E     E     E.        S  +Q              +S   E.        E     E     E     E     E     E
e||------------------------------------------------------|-----------------------------9---------------------|
B||o----11------------------------------11-(11)----------|-(11)-11--------------11----------13----11---------|
G||---------------13----10----13-------------------------|----------------13----------------------------13---|
D||------------------------------------------------------|---------------------------------------------------|
A||o-----------------------------------------------------|---------------------------------------------------|
E||------------------------------------------------------|---------------------------------------------------|
|
 |    S  S   S  S  S  S  S  S  S   S  S  S   S   S  S  S     S   S   S  S  S  S  S  S  S  S  S  S  S  S  S  S
e||--18-18-----------------18-18--18---------------------|--18--18-----------------18-18-18------------------|
B||o--------------18-18---------------------18--18-------|----------------18-18-------------------18-18------|
G||---------18-18-------18-----------18-18---------18-18-|----------18-18-------18----------18-18-------18-18|
D||------------------------------------------------------|---------------------------------------------------|
A||o-----------------------------------------------------|---------------------------------------------------|
E||------------------------------------------------------|---------------------------------------------------|


    W                                                 +Q.                 E     E     E     E     E
e|-------------------------------------------------|------------------------------------------------------|
B|-------------------------------------------------|------------------------------------------------------|
G|-10----------------------------------------------|-(10)-------------------------------------------------|
D|-------------------------------------------------|----------------------------------------8----10-------|
A|-------------------------------------------------|----------------------8-----9----11-------------------|
E|-------------------------------------------------|------------------------------------------------------|
|
 |  S  S  S  S  S  S  S  S  S  S  S  S  S  S  S  S     S   S  S  S  S  S  S  S  S  S  S  S  S  S  S  S
e|----------------------18-18-18-------------------|------------------------18-18-18----------------------|
B|-18-18-------------------------------------------|--18--18----------------------------------------------|
G|-------15-15-18-18-15----------15-15-18-18-15-15-|---------15-15-18-18-15----------15-15-18-18-15-15----|
D|-------------------------------------------------|------------------------------------------------------|
A|-------------------------------------------------|------------------------------------------------------|
E|-------------------------------------------------|------------------------------------------------------|


    Q.                 E     H                         +Q.                 E     E     E     E     E
e|--------------------------------------------------|---------------------------------------------------|
B|--------------------------------------------------|---------------------------------------------------|
G|--8-----------------10----------------------------|---------------------------------------------------|
D|--------------------------11----------------------|-(11)----------------11----13----11----10----11----|
A|--------------------------------------------------|---------------------------------------------------|
E|--------------------------------------------------|---------------------------------------------------|
|
 |  S   S  S  S  S  S  S  S  S  S  S  S  S  S  S  S     S   S  S  S  S  S  S  S  S  S  S  S  S  S  S  S
e|--------------------------------------------------|---------------------------------------------------|
B|-18--18-------16-16----18-18-18-------16-16-------|--18--18-------16-16----18-18-18-------16-16-------|
G|--------18-18-------18----------18-18-------18-18-|---------15-15-------15----------15-15-------15-15-|
D|--------------------------------------------------|---------------------------------------------------|
A|--------------------------------------------------|---------------------------------------------------|
E|--------------------------------------------------|---------------------------------------------------|


                                                      ~~
    W                                                 W
e|-------------------------------------------------|-------------------------------------|
B|-------------------------------------------------|-------------------------------------|
G|-10----------------------------------------------|-13----------------------------------|
D|-------------------------------------------------|-------------------------------------|
A|-------------------------------------------------|-------------------------------------|
E|-------------------------------------------------|-------------------------------------|
|
 |  S  S  S  S  S  S  S  S  S  S  S  S  S  S  S  S    Q   Q   Q   T  T  T  T  T  T  T  T
e|-17-17-------15-15----17-17-17-------15-15-------|-------------18-16-------------------|
B|-------18-18-------18----------18-18-------18-18-|-18--18--18--------19-18-16----------|
G|-------------------------------------------------|----------------------------18-17-15-|
D|-------------------------------------------------|-------------------------------------|
A|-------------------------------------------------|-------------------------------------|
E|-------------------------------------------------|-------------------------------------|


   Gtr I
    S  E.        E     E     E.        S  +Q              +S   E.        E     E     E     E     E     E
e|-----------------------------------------------------|-----------------------------9----------------------|
B|----11------------------------------11-(11)----------|-(11)-11--------------11----------13----11----------|
G|--------------13----10----13-------------------------|----------------13----------------------------13----|
D|-----------------------------------------------------|----------------------------------------------------|
A|-----------------------------------------------------|----------------------------------------------------|
E|-----------------------------------------------------|----------------------------------------------------|
|
 |  S  S   S  S  S  S  S  S  S   S  S  S   S   S  S  S     S   S   S  S  S  S  S  S  S  S  S  S  S  S  S  S
e|-18-18-----------------18-18--18---------------------|--18--18-----------------18-18-18-------------------|
B|--------------18-18---------------------18--18-------|----------------18-18-------------------18-18-------|
G|--------18-18-------18-----------18-18---------18-18-|----------18-18-------18----------18-18-------18-18-|
D|-----------------------------------------------------|----------------------------------------------------|
A|-----------------------------------------------------|----------------------------------------------------|
E|-----------------------------------------------------|----------------------------------------------------|


    H                       +E      S  S  E     E       H                       Q           Q
e|---------------------------------------------------|----------------------------------------------------|
B|---------------------------------------------------|----------------------------------------------------|
G|-10----------------------(10)----10-11-13----------|-10-------------------------------------------------|
D|---------------------------------------------13----|-------------------------11----------13-------------|
A|---------------------------------------------------|----------------------------------------------------|
E|---------------------------------------------------|----------------------------------------------------|
|
 |  S  S  S  S  S  S  S  S   S   S  S  S  S  S  S  S    S  S  S  S  S  S  S  S  S  S  S  S  S  S  S  S
e|----------------------18--18--18-------------------|----------------------18-18-18----------------------|
B|-18-18---------------------------------------------|-18-18----------------------------------------------|
G|-------15-15-18-18-15------------15-15-18-18-15-15-|-------15-15-18-18-15----------15-15-18-18-15-15----|
D|---------------------------------------------------|----------------------------------------------------|
A|---------------------------------------------------|----------------------------------------------------|
E|---------------------------------------------------|----------------------------------------------------|


    H                       +E      Q           E       H                       Q           Q
e|---------------------------------------------------|-------------------------------------------------|
B|---------------------------------------------------|-------------------------------------------------|
G|-10----------------------(10)----------------------|-------------------------------------------------|
D|---------------------------------13----------11----|-13----------------------11----------13----------|
A|---------------------------------------------------|-------------------------------------------------|
E|---------------------------------------------------|-------------------------------------------------|
|
 |  S  S  S  S  S  S  S  S   S   S  S  S  S  S  S  S    S  S  S  S  S  S  S  S  S  S  S  S  S  S  S  S
e|---------------------------------------------------|-------------------------------------------------|
B|-18-18-------16-16----18--18--18-------16-16-------|-18-18-------16-16----18-18-18-------16-16-------|
G|-------18-18-------18------------18-18-------18-18-|-------15-15-------15----------15-15-------15-15-|
D|---------------------------------------------------|-------------------------------------------------|
A|---------------------------------------------------|-------------------------------------------------|
E|---------------------------------------------------|-------------------------------------------------|
|
 |  W                                                   W
e|---------------------------------------------------|-------------------------------------------------|
B|---------------------------------------------------|-------------------------------------------------|
G|---------------------------------------------------|-------------------------------------------------|
D|---------------------------------------------------|-------------------------------------------------|
A|---------------------------------------------------|-------------------------------------------------|
E|---------------------------------------------------|-------------------------------------------------|


                                                     Gtr III
    H                       H                         H       Q    E  E
e|-------------------------------------------------|--------------------|
B|-------------------------10----------------------|--------------------|
G|-10----------------------------------------------|-----------------11-|
D|-------------------------------------------------|--------------------|
A|-------------------------------------------------|--------------------|
E|-------------------------------------------------|--------------------|
|
 |  S  S  S  S  S  S  S  S  S  S  S  S  S  S  S  S    Q   Q   Q    E  E
e|-17-17-------15-15----17-17-17-------15-15-------|--------------------|
B|-------18-18-------18----------18-18-------18-18-|--------------------|
G|-------------------------------------------------|--------------13----|
D|-------------------------------------------------|-15--15--15------16-|
A|-------------------------------------------------|--------------------|
E|-------------------------------------------------|--------------------|
|
 |                                                   Gtr I
 |  W                                                 H       Q.      E
e|-------------------------------------------------|---------11---------|
B|-------------------------------------------------|-13-----------------|
G|-------------------------------------------------|--------------------|
D|-------------------------------------------------|--------------------|
A|-------------------------------------------------|--------------------|
E|-------------------------------------------------|--------------------|


    +E   E  E  E  E.  S  +E   E   E  E  E  E  E  Q   E
e|-------------------13-(13)----|---------------13--11-|
B|------------11-14-------------|---------11-14--------|
G|-(11)-10-11----------------11-|---10-11--------------|
D|------------------------------|----------------------|
A|------------------------------|----------------------|
E|------------------------------|----------------------|


         ~~~~~~~~~~~~~~~
   E  E  H.         +H.       +E   E
e|---------------|-------------------|
B|---13----------|-------------------|
G|------13-------|-(13)------(13)-11-|
D|---------------|-------------------|
A|---------------|-------------------|
E|---------------|-------------------|


    +E   E  E  E  E.  S  +E   E
e|-------------------13-(13)----|
B|------------11-14-------------|
G|-(11)-10-11----------------11-|
D|------------------------------|
A|------------------------------|
E|------------------------------|


                                ~~~~~~~~~~~~~~~
   E  E  E  E  E  Q   E   E  E  H.         +W
e|---------------13--16-|------13-------|-(13)----|
B|---------11-14--------|---16----------|---------|
G|---10-11--------------|---------------|---------|
D|----------------------|---------------|---------|
A|----------------------|---------------|---------|
E|----------------------|---------------|---------|


    +S   E.  E  E  E  E  E.  S    +H             Q     Q
e|-(13)-13--11----11-----------|----------------------------|
B|-------------14----14-13--11-|-(11)-----------11----------|
G|-----------------------------|----------------------14----|
D|-----------------------------|----------------------------|
A|-----------------------------|----------------------------|
E|-----------------------------|----------------------------|
|
 |   W                             S   E.  E  E  E  E  E  S
e|-----------------------------|------18--16----16----------|
B|-----------------------------|-------------18----18-16-18-|
G|-----------------------------|----------------------------|
D|-----------------------------|----------------------------|
A|-----------------------------|----------------------------|
E|-----------------------------|----------------------------|


     S   E.  E  E  E  E  E.  S    +H             Q     Q
e|------13--11----11-----------|--------------------------------|
B|--11---------14----14-13--11-|-(11)-----------11--------------|
G|-----------------------------|----------------------14--------|
D|-----------------------------|--------------------------------|
A|-----------------------------|--------------------------------|
E|-----------------------------|--------------------------------|
|
 |   ~~~~
 |  +W                             S   E.  E  E  E  E  E  S  S
e|-----------------------------|------18-----18-21-20-18----18--|
B|-(18)------------------------|----------21-------------21-----|
G|-----------------------------|--------------------------------|
D|-----------------------------|--------------------------------|
A|-----------------------------|--------------------------------|
E|-----------------------------|--------------------------------|


                                                           ~~
    S  E.  E  E  E  E  E.  S    +S   E.  E  E  E  E  Q     W
e|----13--11----11-----------|--------------------------|-----------|
B|-11--------14----14-13--11-|-(11)-11------------------|-----------|
G|---------------------------|----------13-10-13-10-----|-10--------|
D|---------------------------|----------------------13--|-----------|
A|---------------------------|--------------------------|-----------|
E|---------------------------|--------------------------|-----------|
|
 |  ~~
 |  W                            S   E.  E  E  E  E  Q     W
e|---------------------------|------21--20-18-20-18-----|-----------|
B|-18------------------------|----------------------21--|-18--------|
G|---------------------------|--------------------------|-----------|
D|---------------------------|--------------------------|-----------|
A|---------------------------|--------------------------|-----------|
E|---------------------------|--------------------------|-----------|


    H                +E.      S     S     S     S     S
e|----------------------------------------------------------||
B|---------------------------------------------------------o||
G|-10---------------(10)-----10----10----10----13----13-----||
D|----------------------------------------------------------||
A|---------------------------------------------------------o||
E|----------------------------------------------------------||
|
 |  S  e  S  E.  S.       E.     S     S     S     S     S
e|----16----16-----------16---------------------------------||
B|---------------------------------------------------------o||
G|-13----13-----13--------------10----10----10----13----13--||
D|----------------------------------------------------------||
A|---------------------------------------------------------o||
E|----------------------------------------------------------||



************************************

| (n)  Ghost note
| b    Bend 

************************************
Suggest correction
Give kudos to tab author, rate the tab!
1 2 3 4 5
comments
print report bad tab
guest
You may want to rate the tab now too:
select rating
Wanna post a correction for this tab? Suggest correction