Oops, an error
Loading. Please wait.

Mega Man 3 - Title Screen tab

version 1
version 1

Whole song

Interactive

130 views 6 this week
no commentswrite comment
1 2 3 4 5
2 more votes to show rating
add to favorites
×
Save as Personal and add changes to this tab that will be seen only by you. Learn more ›
×
You can save this tab as Personal to edit and correct it or add notes. All changes will be seen only by you. Learn more »
launch autoscroll
font size
0
reset
how to read this tab
guitar tuner
edit
Autoscroll
slow
fast
+/-
esc
set tempo
stop
#----------------------------------PLEASE NOTE---------------------------------#
#This file is the author's own work and represents their interpretation of the #
#song. You may only use this file for private study, scholarship, or research. #
#------------------------------------------------------------------------------##

Mega Man 3 (NES) - Title Screen theme

Gtr I (E A D G B E) - 'Squarewave'
Gtr II (E A D G B E) - 'Sawtooth'
Gtr III (E A D G B E) - 'Strings'

   Q=150
   Gtr II
    H     +E   E  E  E    Q       +H          Q
e|---------------------|---------------------12----|
B|-14----(14)-------12-|-14------(14)--------------|
G|------------11-14----|---------------------------|
D|---------------------|---------------------------|
A|---------------------|---------------------------|
E|---------------------|---------------------------|
|
| Gtr I
|                                      |---3----|
|  H     +E   E  E  E    E  +Q.        Q  Q     Q
|---------------------|---------------------------|
|---------------14----|---------------------------|
|-14----(14)-11----11-|-13-(13)-------14-11-------|
|---------------------|------------------------14-|
|---------------------|---------------------------|
|---------------------|---------------------------|


    H     +E   E  E  E    +H.         E  E
e|-11----(11)----------|-------------------|
B|------------14-12-15-|-(15)--------14-12-|
G|---------------------|-------------------|
D|---------------------|-------------------|
A|---------------------|-------------------|
E|---------------------|-------------------|
|
 |  H      E   E  E  E    +H      H
e|---------------------|-------------------|
B|---------------------|-------------------|
G|---------------11-14-|-(14)----13--------|
D|-13-----13--14-------|-------------------|
A|---------------------|-------------------|
E|---------------------|-------------------|


    E  E  Q   E  Q    E    +E   Q     Q     Q    E
e|----------------------|--------------------------|
B|-14-------------------|------------------12---13-|
G|----14-11-----11---14-|-(14)-11----14------------|
D|-----------14---------|--------------------------|
A|----------------------|--------------------------|
E|----------------------|--------------------------|
|
 |  Q     Q   Q    Q        Q      Q     Q    Q
e|----------------------|--------------------------|
B|----------------------|--------------------------|
G|----------------------|--------------------------|
D|-------11--------9----|---------11----------9----|
A|--9--------12---------|---9-----------12---------|
E|----------------------|--------------------------|


    E  E  E  E  +Q.    E     E   E  E  E  E  Q.
e|--------------------20-|--19--17----17-17-19----|
B|-12--------------------|---------19-------------|
G|----14-11-14-(14)------|------------------------|
D|-----------------------|------------------------|
A|-----------------------|------------------------|
E|-----------------------|------------------------|
|
 |  W                       +H            E  Q.
e|-----------------------|---------------10-10----|
B|-----------------------|------------------------|
G|-----------------------|------------------------|
D|-----------------------|------------------------|
A|-----------------------|------------------------|
E|-10--------------------|-(10)-------------------|


    E  E  E  E  E  E  E  E    +E    Q   Q   Q  E
e|-------------------12-14-|-(14)-------------19-|
B|-------------12-14-------|-----------17--19----|
G|----11-13-14-------------|-------18------------|
D|-------------------------|---------------------|
A|-------------------------|---------------------|
E|-------------------------|---------------------|
|
 |  W                          W
e|-------------------------|---------------------|
B|-------------------------|---------------------|
G|-11----------------------|--14-----------------|
D|-------------------------|---------------------|
A|-------------------------|---------------------|
E|-------------------------|---------------------|


    +Q    Q   E  Q   E    +E   E  H       E  E
e|-(19)--17------------|-----------------------|
B|-----------19-17--19-|-(19)-18-16------18-19-|
G|---------------------|-----------------------|
D|---------------------|-----------------------|
A|---------------------|-----------------------|
E|---------------------|-----------------------|
|
 |   W                     H          H
e|---------------------|-----------------------|
B|--14-----------------|-----------------------|
G|---------------------|---9---------10--------|
D|---------------------|-----------------------|
A|---------------------|-----------------------|
E|---------------------|-----------------------|


    +E   E  E  E  E  E  E  E    E.  S  +E   E  E.  S  +E   E
e|------21-17----------------|--------------------17-(17)-19-|
B|-(19)-------19-------------|-------------17-19-------------|
G|---------------18----------|-16--18-(18)-------------------|
D|------------------16-18-19-|-------------------------------|
A|---------------------------|-------------------------------|
E|---------------------------|-------------------------------|
|
 |   W                          W
e|---------------------------|-------------------------------|
B|---------------------------|-------------------------------|
G|--11-----------------------|-14----------------------------|
D|---------------------------|-------------------------------|
A|---------------------------|-------------------------------|
E|---------------------------|-------------------------------|


   |--3--|  |--3--|       |--3---|  |--3--|
   Q  Q  Q  Q  Q  Q       Q   Q  Q  Q  Q  Q
|-21-19-17----17-16---|------------19-21-24---|
|----------19---------|------18-21------------|
|---------------------|--18-------------------|
|---------------------|-----------------------|
|---------------------|-----------------------|
|---------------------|-----------------------|
|
 |  W                     +W
e|---------------------|-----------------------|
B|-14------------------|-(14)------------------|
G|---------------------|-----------------------|
D|---------------------|-----------------------|
A|---------------------|-----------------------|
E|---------------------|-----------------------|


    S  S  S  S  E  E  E.  S  E  E    S  S  S  S  E  E  E.  S  E  E
e|--------------------------------|--------------------------------|
B|-14-14-12-14-12-14-12--14-14-12-|-14-14-12-14-12-14-12--14-14-12-|
G|--------------------------------|--------------------------------|
D|--------------------------------|--------------------------------|
A|--------------------------------|--------------------------------|
E|--------------------------------|--------------------------------|
|
 |  S  S  S  S  E  E  E.  S  E  E    S  S  S  S  E  E  E.  S  E  E
e|--------------------------------|--------------------------------|
B|--------------------------------|--------------------------------|
G|-11-11-11-11-11-11-11--11-11-11-|-11-11-11-11-11-11-11--11-11-11-|
D|--------------------------------|--------------------------------|
A|--------------------------------|--------------------------------|
E|--------------------------------|--------------------------------|


    S  S  S  S  S  S  S  S  S  S  S  S  S  S  S  S    S  S  S  S  S  S  S  S  S  S  S  S  S  S  S  S
e|-------------------------------------12----------|-16-14----16-14----16-14----16-14----16-14-13-------|
B|-------------12-------12-14----12-14----15-14-12-|-------14-------14-------14-------14----------14----|
G|-14-11-13-14----13-14-------14-------------------|----------------------------------------------------|
D|-------------------------------------------------|----------------------------------------------------|
A|-------------------------------------------------|----------------------------------------------------|
E|-------------------------------------------------|----------------------------------------------------|
|
 |  S  S  S  S  S  S  S  S  S  S  S  S  S  S  S  S    Q           Q           Q           Q
e|-------------------------------------------------|----------------------------------------------------|
B|-------------------------------------------------|----------------------------------------------------|
G|-------------------------------------18-16-------|-------------------------------------18-------------|
D|-16-------16-18----16-18-19-16-18-19-------19-18-|-------------15----------18-------------------------|
A|----17-19-------19-------------------------------|-16-------------------------------------------------|
E|-------------------------------------------------|----------------------------------------------------|


       E   E  E  E  E  E  E  E    E  E  E  E  E  E  E  E
e||----------------------------|-------------------------|
B||o---------------17----16----|----17----16-------------|
G||-------16-18----------------|-16-------------18----16-|
D||---16--------16----16----16-|-------16----16----16----|
A||o---------------------------|-------------------------|
E||----------------------------|-------------------------|
|
 |   Gtr I
 |    +E   E  E  E  E  E  E  E    E  E  E  E  E  E  E  E
e||----------------------------|-------------------------|
B||o------------------17----16-|-------17----16----------|
G||--(18)----16-18-------------|----16-------------18----|
D||-------16-------16----16----|-16-------16----16----16-|
A||o---------------------------|-------------------------|
E||----------------------------|-------------------------|


    E  E  E  E  E  E  E  E    E  E  E  E  E  E  E  E
e|-------------------------|----------------------16|
B|-------------17----16----|----17----16-------17---|
G|----16-18----------------|-16-------------18------|
D|-16-------16----16----16-|-------16----16---------|
A|-------------------------|------------------------|
E|-------------------------|------------------------|
|
 |  E  E  E  E  E  E  E  E    E  E  E  E  E  E  E  E
e|-------------------------|------------------------|
B|----------------17----16-|-------17----16-------17|
G|-16----16-18-------------|----16-------------18---|
D|----16-------16----16----|-16-------16----16------|
A|-------------------------|------------------------|
E|-------------------------|------------------------|


    +Q      E  Q     E  E  E    +Q      E  Q     Q     E
e|-(16)----14-------------16-|-(16)----14----------------|
B|------------17----14-17----|------------17----16----17-|
G|---------------------------|---------------------------|
D|---------------------------|---------------------------|
A|---------------------------|---------------------------|
E|---------------------------|---------------------------|
|
 |   E   E  E  E  E  E  E  E     E   E  E  E  E  E  E  E
e|---------------------------|---------------------------|
B|---------------------------|---------------------------|
G|---------------------------|---------------------------|
D|--14-----11----14----11----|--14-----11----14----11----|
A|------12----12----12----12-|------12----12----12----12-|
E|---------------------------|---------------------------|


    +E   E  Q     Q     Q       E  Q     E  +H
e|---------------------------|---------------------------|
B|-(17)-16-14----14----------|----14----14-(14)----------|
G|---------------------16----|-16------------------------|
D|---------------------------|---------------------------|
A|---------------------------|---------------------------|
E|---------------------------|---------------------------|
|
 |   E   E  E  E  E  E  E  E    E  E  E  E   E   E  E  E
e|---------------------------|---------------------------|
B|---------------------------|---------------------------|
G|---------------------------|---------------------------|
D|--16-----------16----------|-16----18-----16-----------|
A|------16-19-16----16-19-16-|----16----16------16-19-16-|
E|---------------------------|---------------------------|


    E  E  E  E  E  E  E  E    E  E  E  E  E  Q   E
e|-------------19----17----|-16-----------------16-|
B|----17-19----------------|-------19----17-19-----|
G|-18-------18----18----18-|----18----18-----------|
D|-------------------------|-----------------------|
A|-------------------------|-----------------------|
E|-------------------------|-----------------------|
|
 | Gtrs I, III
 |  W                         W
e|-------------------------|-----------------------|
B|-------------------------|-----------------------|
G|-18----------------------|-16--------------------|
D|-------------------------|-----------------------|
A|-------------------------|-----------------------|
E|-------------------------|-----------------------|


    +E   E  E  E  E  Q   E    E  E  E  Q     Q   E
e|-(16)-----------------16-|-----------------------|
B|------17----------17-----|-17--------------------|
G|---------18-16-18--------|----18-16-18----18--18-|
D|-------------------------|-----------------------|
A|-------------------------|-----------------------|
E|-------------------------|-----------------------|
|
 |   W                        H           H
e|-------------------------|-----------------------|
B|--17---------------------|-16--------------------|
G|-------------------------|-------------16--------|
D|-------------------------|-----------------------|
A|-------------------------|-----------------------|
E|-------------------------|-----------------------|


    +E   E  E  E  E  E  E  E    E  E  E  E  E  Q.
e|---------------19----17----|-16-------------------|
B|------17-19----------------|-------19----17-19----|
G|-(18)-------18----18----18-|----18----18----------|
D|---------------------------|----------------------|
A|---------------------------|----------------------|
E|---------------------------|----------------------|
|
 |   W                          W
e|---------------------------|----------------------|
B|---------------------------|----------------------|
G|---------------------------|----------------------|
D|--18-----------------------|-16-------------------|
A|---------------------------|----------------------|
E|---------------------------|----------------------|


    E  E  E  Q   E  E  E     E   E  E  Q   E  Q
e|-16-16----16--16----16-|--21--21-19-21--19-21---||
B|-------19--------19----|-----------------------o||
G|-----------------------|------------------------||
D|-----------------------|------------------------||
A|-----------------------|-----------------------o||
E|-----------------------|------------------------||
|
 |  W                       +W
e|-----------------------|------------------------||
B|-----------------------|-----------------------o||
G|-----------------------|------------------------||
D|-----------------------|------------------------||
A|-16--------------------|-(16)------------------o||
E|-----------------------|------------------------||



************************************

| (n)  Ghost note

************************************
Suggest correction
Creating personal tab
Creating personal tab
You can edit any tab online and save it as your Personal.

You can edit, replace or remove any tab part or add personal notes – all changes will be seen only by you.

Personal tabs can be accessed anytime from any device, even offline.
Learn more »
Give kudos to tab author, rate the tab!
1 2 3 4 5
comments
print report bad tab
guest
You may want to rate the tab now too:
select rating
Wanna post a correction for this tab? Suggest correction