Oops, an error
Loading. Please wait.

Mega Man 3 - Top Man Tab

version 1
version 1

Whole song

Interactive

4 views 1 this week
no commentswrite comment
1 2 3 4 5
3 more votes to show rating
add to favorites
launch autoscroll
font size
0
reset
how to read this tab
guitar tuner
Autoscroll
slow
fast
+/-
esc
set tempo
stop
Help us to improve Ultimate-Guitar.com Take our survey!
×
Author
Difficulty
intermediate
Megaman 3 (NES) - Topman

Gtr I (E A D G B E) - 'Sawtooth'
Gtr II (E A D G B E) - 'Squarewave'
Gtr III (E A D G B E) - 'Another Sawtooth'

   Q=105
   Gtr I
    S  S  S  S  +E   S  S  S  E.  S  S  S  S
e|----------15-(15)----------15--16-17-------|
B|-18-17-15---------18-17-15-----------15----|
G|----------------------------------------17-|
D|-------------------------------------------|
A|-------------------------------------------|
E|-------------------------------------------|
|
 | Gtr II
 |  S  S  S  S  +E   S  S  S  E.  S  S  S  S
e|-------------------------------------------|
B|-------------------------------------------|
G|----------12-(12)----------12--13-14-------|
D|-15-14-12---------15-14-12-----------12----|
A|----------------------------------------15-|
E|-------------------------------------------|


    S  S  S  S  +E   S  S  S  E.  S  S  S  S
e|----------15-(15)----------15--16-17-13-14---|
B|-18-17-15---------18-17-15-------------------|
G|---------------------------------------------|
D|---------------------------------------------|
A|---------------------------------------------|
E|---------------------------------------------|
|
 |  S  S  S  S  +E   S  S  S  E.  S  S  S  S
e|---------------------------------------------|
B|---------------------------------------------|
G|----------12-(12)----------12--13-14-10-11---|
D|-15-14-12---------15-14-12-------------------|
A|---------------------------------------------|
E|---------------------------------------------|


      S  S  S  S  S  S  S  S  S  S  S  S  S  S  S  S
e||--------17----15----------------------15----------|
B||o-15-15----15----15-18-15----15-18-15----15-18-15-|
G||--------------------------17----------------------|
D||--------------------------------------------------|
A||o-------------------------------------------------|
E||--------------------------------------------------|
|
 |    S  S  S  S  S  S  S  S  S  S  S  S  S  S  S  S
e||--------------------------------------------------|
B||o-------15----------------------------15----------|
G||--14-14----14-17-14-15-14----14-17-14----14-17-14-|
D||--------------------------17----------------------|
A||o-------------------------------------------------|
E||--------------------------------------------------|


    +S   S  S  S  S  S  S  S  S  S  S  S  S  S  S  S
e|---------17----15----------------------15-----------|
B|-(15)-15----15----15-18-15----15-18-15----15-18-13--|
G|---------------------------17-----------------------|
D|----------------------------------------------------|
A|----------------------------------------------------|
E|----------------------------------------------------|
|
 |  +S   S  S  S  S  S  S  S  S  S  S  S  S  S  S  S
e|----------------------------------------------------|
B|---------15----------------------------15-----------|
G|-(14)-14----14-17-14-15-14----14-17-14----14-17-12--|
D|---------------------------17-----------------------|
A|----------------------------------------------------|
E|----------------------------------------------------|


    +S   S  S  S  S  S  S  S  +S   S  S  S  S  S  S  S
e|---------15----13----12------------12----13----12----|
B|-(13)-13----13----13----13-(13)-13----13----13----13-|
G|-----------------------------------------------------|
D|-----------------------------------------------------|
A|-----------------------------------------------------|
E|-----------------------------------------------------|
|
 |  +S   S  S  S  S  S  S  S   S   S  S  S  S  S  S  S
e|-----------------------------------------------------|
B|---------13----11------------------------11----------|
G|-(12)-12----12----12-14-12------12-14-12----12-14-12-|
D|----------------------------15-----------------------|
A|-----------------------------------------------------|
E|-----------------------------------------------------|


    +S   S  S  S  S  S  S  S  S  S  E  +S   S  S  S
e|---------15----13----12------------------13-12-------|
B|-(13)-13----13----13----13-13-14-15-(15)-------15----|
G|-----------------------------------------------------|
D|-----------------------------------------------------|
A|-----------------------------------------------------|
E|-----------------------------------------------------|
|
 |  +S   S  S  S  S  S  S  S  S  S  E  +S   S  S  S
e|-----------------------------------------------------|
B|---------13----11------------------------------------|
G|-(12)-12----12----12-14-12---------------------------|
D|---------------------------10-11-12-(12)-15-14-12----|
A|-----------------------------------------------------|
E|-----------------------------------------------------|


    +S   S  S  S  S  S  S  S  +S   S  S  S  S  S  S  S
e|---------17----15------------------17----15----------|
B|-(15)-15----15----15-18-15-(15)-15----15----15-18-15-|
G|-----------------------------------------------------|
D|-----------------------------------------------------|
A|-----------------------------------------------------|
E|-----------------------------------------------------|
|
 |  +S   S  S  S  S  S  S  S  +S   S  S  S  S  S  S  S
e|-----------------------------------------------------|
B|-----------------------------------------------------|
G|---------14----12------------------14----12----------|
D|-(12)-12----12----12-15-12-(12)-12----12----12-15-12-|
A|-----------------------------------------------------|
E|-----------------------------------------------------|
|
 | Gtr III
 |   W
e|-----------------------------------------------------|
B|-----------------------------------------------------|
G|-----------------------------------------------------|
D|-----------------------------------------------------|
A|-----------------------------------------------------|
E|-----------------------------------------------------|


    E     E     E     E     E     E     E     S  S
e|-------------------20----19----------------19-17---|
B|-15----17----18----------------20----20------------|
G|---------------------------------------------------|
D|---------------------------------------------------|
A|---------------------------------------------------|
E|---------------------------------------------------|
|
 |  S  S  S  S  S  S  S  S  S  S  S  S  S  S  S  S
e|---------------------------------------------------|
B|---------------------------------------------------|
G|-------14----12----------------14----12------------|
D|-12-12----12----12-15-12-12-12----12----12-15-12---|
A|---------------------------------------------------|
E|---------------------------------------------------|
|
 |  S  S  S  S  S  S  S  S  S  S  S  S  S  S  S  S
e|----------------------20-20-19-19-------------19---|
B|----------17-17-18-18-------------20-20-20-20------|
G|----19-19------------------------------------------|
D|---------------------------------------------------|
A|---------------------------------------------------|
E|---------------------------------------------------|


    +Q.              S  S  +H
e|-(17)-------------15-17-(17)-----------|
B|---------------------------------------|
G|---------------------------------------|
D|---------------------------------------|
A|---------------------------------------|
E|---------------------------------------|
|
 |   S   S  E  S  S  E     +S   E  S  E.
e|---------15-15-13------------15-15-13--|
B|------------------15----(15)-----------|
G|---------------------------------------|
D|--12--12-------------------------------|
A|---------------------------------------|
E|---------------------------------------|
|
 |   E      E  Q            H
e|--17-----------------------------------|
B|---------------------------------------|
G|---------------------------------------|
D|---------------------------------------|
A|---------------------------------------|
E|---------------------------------------|


    E     E     E     E     E     E     E     S  S
e|-------------------20----22----20----19-------17-|
B|-------17----18----------------------------20----|
G|-19----------------------------------------------|
D|-------------------------------------------------|
A|-------------------------------------------------|
E|-------------------------------------------------|
|
 |  S  S  S  S  S  S  S  S  S  S  S  S  S  S  S  S
e|-------------------------------------------------|
B|-------------------------------------------------|
G|-------14----12----------------14----12----------|
D|-12-12----12----12-15-12-12-12----12----12-15-12-|
A|-------------------------------------------------|
E|-------------------------------------------------|
|
 |  S  S  S  S  S  S  S  S  S  S  S  S  S  S  S  S
e|----------------------20-20-22-22-20-20-19-19----|
B|----------17-17-18-18-------------------------20-|
G|----19-19----------------------------------------|
D|-------------------------------------------------|
A|-------------------------------------------------|
E|-------------------------------------------------|


    +Q.              S  S  +H
e|-(17)-------------15-17-(17)-----------|
B|---------------------------------------|
G|---------------------------------------|
D|---------------------------------------|
A|---------------------------------------|
E|---------------------------------------|
|
 |   S   S  E  S  S  E     +S   E  S  E.
e|---------15-15-13------------15-15-13--|
B|------------------15----(15)-----------|
G|---------------------------------------|
D|--12--12-------------------------------|
A|---------------------------------------|
E|---------------------------------------|
|
 |   E      E  Q            H
e|--17-----------------------------------|
B|---------------------------------------|
G|---------------------------------------|
D|---------------------------------------|
A|---------------------------------------|
E|---------------------------------------|


    E     E     E     E     E     E     E     S  S
e|-------------------20----19----------------19-17---|
B|-------17----18----------------20----20------------|
G|-19------------------------------------------------|
D|---------------------------------------------------|
A|---------------------------------------------------|
E|---------------------------------------------------|
|
 |  S  S  S  S  S  S  S  S  S  S  S  S  S  S  S  S
e|---------------------------------------------------|
B|---------------------------------------------------|
G|-------14----12----------------14----12------------|
D|-12-12----12----12-15-12-12-12----12----12-15-12---|
A|---------------------------------------------------|
E|---------------------------------------------------|
|
 |  S  S  S  S  S  S  S  S  S  S  S  S  S  S  S  S
e|----------------------20-20-19-19-------------19---|
B|----------17-17-18-18-------------20-20-20-20------|
G|----19-19------------------------------------------|
D|---------------------------------------------------|
A|---------------------------------------------------|
E|---------------------------------------------------|


    +Q.              S  S  +H
e|-(17)-------------15-17-(17)--------------|
B|------------------------------------------|
G|------------------------------------------|
D|------------------------------------------|
A|------------------------------------------|
E|------------------------------------------|
|
 |   S   S  E  S  S  E     +S   E  S  E.  S
e|---------15-15-13------------15-15-13-----|
B|------------------15----(15)--------------|
G|------------------------------------------|
D|--12--12-------------------------------12-|
A|------------------------------------------|
E|------------------------------------------|
|
 |   E      E  Q            H
e|--17--------------------------------------|
B|------------------------------------------|
G|------------------------------------------|
D|------------------------------------------|
A|------------------------------------------|
E|------------------------------------------|


    E     E     E     E     E     E     E     S  S
e|-------------------20----22----20----19-------17-|
B|-------17----18----------------------------20----|
G|-19----------------------------------------------|
D|-------------------------------------------------|
A|-------------------------------------------------|
E|-------------------------------------------------|
|
 |  S  S  S  S  S  S  S  S  S  S  S  S  S  S  S
e|-------------------------------------------------|
B|-------------------------------------------------|
G|----14----12----------------14----12-------------|
D|-12----12----12-15-12-12-12----12----12-15-12----|
A|-------------------------------------------------|
E|-------------------------------------------------|
|
 |  S  S  S  S  S  S  S  S  S  S  S  S  S  S  S  S
e|----------------------20-20-22-22-20-20-19-19----|
B|----------17-17-18-18-------------------------20-|
G|----19-19----------------------------------------|
D|-------------------------------------------------|
A|-------------------------------------------------|
E|-------------------------------------------------|


    +Q.              S  S  +H
e|-(17)-------------15-17-(17)----------------|
B|--------------------------------------------|
G|--------------------------------------------|
D|--------------------------------------------|
A|--------------------------------------------|
E|--------------------------------------------|
|
 |   S   S  E  S  S  E     +S   S  E  E  S  S
e|---------15-15-13---------------15-15-------|
B|------------------15----(15)-15-------------|
G|--------------------------------------------|
D|--12--12------------------------------11-10-|
A|--------------------------------------------|
E|--------------------------------------------|
|
 |   E      E  Q            H
e|--17----------------------------------------|
B|--------------------------------------------|
G|--------------------------------------------|
D|--------------------------------------------|
A|--------------------------------------------|
E|--------------------------------------------|


    E  E  S  S  E  E  Q.
e|-------------------------------------|
B|----18-18-17-18-18-17----------------|
G|-------------------------------------|
D|-------------------------------------|
A|-------------------------------------|
E|-------------------------------------|
|
 |  E  E  S  S  E  E  E   +S   S  S  S
e|-------------------------------------|
B|----11-11-11-11-11-11--(11)----------|
G|-------------------------------------|
D|-10-------------------------10-------|
A|-------------------------------13-12-|
E|-------------------------------------|
|
 |  W
e|-------------------------------------|
B|-------------------------------------|
G|-------------------------------------|
D|-------------------------------------|
A|-------------------------------------|
E|-------------------------------------|


     E   E  S  S  E  E  Q.
e|---------------------------------------|
B|------18-18-17-18-18-17----------------|
G|---------------------------------------|
D|---------------------------------------|
A|---------------------------------------|
E|---------------------------------------|
|
 |  +E   E  S  S  E  E  E   +S   S  S  S
e|---------------------------------------|
B|------11-11-11-11-11-11--(11)----------|
G|---------------------------------------|
D|---------------------------------------|
A|-(12)-------------------------12-11-10-|
E|---------------------------------------|


    E  E  +S   S  S  S  +S   S  S  S  +S   S  S  S
e|-------------------------------------------------|
B|-15-15-(15)----15-18-(18)----15-18-(18)----15-18-|
G|------------17------------17------------17-------|
D|-------------------------------------------------|
A|-------------------------------------------------|
E|-------------------------------------------------|
|
 |  Q      Q             Q             Q
e|-------------------------------------------------|
B|-------------------------------------------------|
G|-10------9------------10------------12-----------|
D|-------------------------------------------------|
A|-------------------------------------------------|
E|-------------------------------------------------|


    E  E  S  S  S  S  E  E  E.  S
e|---------------------------------||
B|-15-15-15----15-18--------------o||
G|----------17-------15-16-17--18--||
D|---------------------------------||
A|--------------------------------o||
E|---------------------------------||
|
 |  Q     Q           H
e|---------------------------------||
B|-10----11-----------------------o||
G|---------------------------------||
D|---------------------------------||
A|--------------------------------o||
E|---------------------------------||



************************************

| (n)  Ghost note 

************************************
Suggest correction
Give kudos to tab author, rate the tab!
1 2 3 4 5
comments
print report bad tab
guest
You may want to rate the tab now too:
select rating
Wanna post a correction for this tab? Suggest correction