Oops, an error
Loading. Please wait.

Mega Man Ii - Metal Mans Stage bass

1,193 views 1 this week
no commentswrite comment
1 2 3 4 5
3 more votes to show rating
add to favorites
×
Save as Personal and add changes to this tab that will be seen only by you. Learn more ›
×
You can save this tab as Personal to edit and correct it or add notes. All changes will be seen only by you. Learn more »
launch autoscroll
font size
0
reset
guitar tuner
edit
Autoscroll
slow
fast
+/-
esc
set tempo
stop
Author
=====================================================
Mega Man II - Metal Man's Stage
as composed by Takashi Tateishi, Manami Matsumae, and
Yoshihiro Sakaguchi
=====================================================
Tabbed by Mikhajlovich
=====================================================

Tuning: E A D G

LEGEND:

(time values)
H = half note
Q = quarter note
E = eighth note
S = sixteenth note
. = dotted note (note value increased x 1.5)
+, (n) = tied note (i.e., don't play note twice)
o||o xn = play section n number of times

 4/4, Tempo=150
 
Intro
  
     E E  Q  E. S  E  E   E E  Q  E. S E  E  
E  |-----------------10-|-------------------|
A o|-8-8-----8--8-11----|-8-8-----8--8-8----|
D o|-----11-------------|-----11---------11-|
G  |--------------------|-------------------|


  E E Q  E. S E E   Q   Q  E E  Q
|-----------------|-----------------|
|-----------------|-----------------|o
|-9-9-8--9--9-9-8-|-9--11--9-9-11---|o
|-----------------|-----------------| x2


Section I

  E E  Q  E. S  E  E   E E  Q  E. S E  E
|-----------------10-|-8-8-----8--8------|
|-8-8-----8--8-11----|-----11-------8----|
|-----11-------------|----------------11-|
|--------------------|-------------------|


  Q  E E  E.  E.  E   E E  E. E. E  E  E
|-------------------|--------------------|
|-------------------|-8-8-----8--8-------|
|-9----9-11--11--11-|-----11-------11-12-|
|-------------------|--------------------|


  E E  Q  E. S  E  E   E E  Q  E. S E  E
|-----------------10-|-8-8-----8--8------|
|-8-8-----8--8-11----|-----11-------8----|
|-----11-------------|----------------11-|
|--------------------|-------------------|


  Q  E E  E.  E.  E   E E  E  S E. E S  E.
|-------------------|---------------------|
|-------------------|-8-8-------8--8-11---|
|-9----9-11--11--11-|-----11-11-----------|
|-------------------|---------------------|


Section II

  S S  E E  S E S E E  S  S   E  E  S  E  S  E.  S E  E
|-8-8----8----8-8-8-8------|-----------------------8-10-|
|-----11---11---------11-10|-11-11-11-10-10-11--11------|
|--------------------------|----------------------------|
|--------------------------|----------------------------|


  S S  E E  S E S E S  E  S    +S   S  E Q  H      
|-8-8----8----8-8-8-8----10-|-(10)-10-10-R--R----|
|-----11---11---------11----|--------------------|
|---------------------------|--------------------|
|---------------------------|--------------------|


  S S  E E  S E S E E  S  S   E  E  S  E  S  E.  S E  E
|-8-8----8----8-8-8-8------|-----------------------8-10-|
|-----11---11---------11-10|-11-11-11-10-10-11--11------|
|--------------------------|----------------------------|
|--------------------------|----------------------------|


End

  S S  E E  S E  S E S  E  S    +S   S  E Q  E S S  Q  
|-8-8----8----8--8-8-8----10-|-(10)-10-10--------------||
|-----11---11----------11----|-------------------------||
|----------------------------|---------------R-8-8-11--||
|----------------------------|-------------------------||


From End, repeat at Intro.

***************************************************
* Generated using Power Tab Editor by Brad Larsen - 
http://powertab.guitarnetwork.org *
***************************************************

            
            
Suggest correction
Creating personal tab
Creating personal tab
You can edit any tab online and save it as your Personal.

You can edit, replace or remove any tab part or add personal notes – all changes will be seen only by you.

Personal tabs can be accessed anytime from any device, even offline.
Learn more »
Give kudos to tab author, rate the tab!
1 2 3 4 5
comments
print report bad tab
guest
You may want to rate the tab now too:
select rating
Wanna post a correction for this tab? Suggest correction