Oops, an error
Loading. Please wait.

Megaman 3 - Needle Man Bass Tab

version 1
version 1

Whole song

Interactive

10 views 1 this week
no commentswrite comment
1 2 3 4 5
3 more votes to show rating
add to favorites
launch autoscroll
font size
0
reset
guitar tuner
Autoscroll
slow
fast
+/-
esc
set tempo
stop
Help us to improve Ultimate-Guitar.com Take our survey!
×
Author
Difficulty
advanced
#----------------------------------PLEASE NOTE---------------------------------#
#This file is the author's own work and represents their interpretation of the #
#song. You may only use this file for private study, scholarship, or research. #
#------------------------------------------------------------------------------##

Megaman 3 (NES) - Needle Man

Gtr I (B E A D G) - 'Untitled'

Q=140
Gtr I

  S S E E E E S S E. S   +S  S E E E E S S +S  S S S
G|----------------------|-----------------------------|
D|----------------------|-----------------------------|
A|-----4-6-4-6-4-6------|-------4-6-4-6-4-6-(6)-7-6-4-|
E|---6----------------6-|-(6)-6-----------------------|
B|----------------------|-----------------------------|


  +S  S E E E E S S E. S   +S  S E E E E S S +S  S S S
G|------------------------|-----------------------------|
D|------------------------|-----------------------------|
A|-(4)---4-6-4-6-4-6------|-------4-6-4-6-4-6-(6)-7-6-4-|
E|-----6----------------6-|-(6)-6-----------------------|
B|------------------------|-----------------------------|


  +S  S E E E E S S E. S   +S  S E E E E S S +S  S S S
G|------------------------|-----------------------------|
D|------------------------|-----------------------------|
A|-(4)---4-6-4-6-4-6------|-------4-6-4-6-4-6-(6)-7-6-4-|
E|-----6----------------6-|-(6)-6-----------------------|
B|------------------------|-----------------------------|


  +S  S E E E E S S E. S   +S  S E E E E S S +S  S S S
G|------------------------|-----------------------------|
D|------------------------|-----------------------------|
A|-(4)---4-6-4-6-4-6------|-------4-6-4-6-4-6-(6)-7-6-4-|
E|-----6----------------6-|-(6)-6-----------------------|
B|------------------------|-----------------------------|


  +S  S E E E E S S E. S   +S  S E E E E S S +S  S S S
G|------------------------|-----------------------------|
D|------------------------|-----------------------------|
A|-(4)---4-6-4-6-4-6------|-------4-6-4-6-4-6-(6)-7-6-4-|
E|-----6----------------6-|-(6)-6-----------------------|
B|------------------------|-----------------------------|


  +S  S S S S S S S S S S S S S S S   +H     E S S S S S S
G|-----------------------------------|-------------------------|
D|-----------------------------------|------------8------------|
A|-(4)-------------------------4-6---|-------------------------|
E|-----6-4---4-----------4-6-6-----6-|-(6)----6-6---6---4-5----|
B|---------6---6-4-2-4-6-------------|----------------6--------|


    E E E S S +S  S E E E   E E E S S +S  S E E E
5||------------------------|-----------------------|
4||o-----------------------|-----------------------|
3||------------------------|-----------------------|
2||o-6---4-5-6-(6)-6---4-5-|-6---4-5-6-(6)-6---4-5-|
1||----6-------------6-----|---6-------------6-----|


  E E E S S +S  S E E E   E E E S S +S  S E E E
G|-----------------------|-----------------------|
D|-----------------------|-----------------------|
A|-----------------------|-----------------------|
E|-6---4-5-6-(6)-6---4-5-|-----6---------6---4-6-|
B|---6-------------6-----|-6-6---6-6-(6)---6-----|


  E E E S S +S  S E E E   E E E S S +S  S E E E
G|-----------------------|-----------------------|
D|-----------------------|-----------------------|
A|-----------------------|-----------------------|
E|-2-----1-2-(2)-2-----1-|-2-----1-2-(2)-2-----1-|
B|---2-4-----------2-4---|---2-4-----------2-4---|


  E E E E E E E E   Q  Q  Q  Q
G|-------------2-5-|-------------|
D|---------1-3-----|-------------|
A|---0-1-3---------|-------------|
E|-1---------------|-1--1--1--4--|
B|-----------------|-------------|


  E E E S S +S  S E E E   E E E S S +S  S E E E
G|-----------------------|-----------------------|
D|-----------------------|-----------------------|
A|-----------------------|-----------------------|
E|-6---4-5-6-(6)-6---4-5-|-6---4-5-6-(6)-6---4-5-|
B|---6-------------6-----|---6-------------6-----|


  E E E S S +S  S E E E   E E E S S +S  S E E E
G|-----------------------|------------------------|
D|-----------------------|------------------------|
A|-----------------------|------------------------|
E|-6---4-5-6-(6)-6---4-5-|-----6---------6---4-6--|
B|---6-------------6-----|-6-6---6-6-(6)---6------|


  E E E S S +S  S E E E   E E E S S +S  S E E E
G|-----------------------|-----------------------|
D|-----------------------|-----------------------|
A|-----------------------|-----------------------|
E|-2-----1-2-(2)-2-----1-|-2-----1-2-(2)-2-----1-|
B|---2-4-----------2-4---|---2-4-----------2-4---|


  E E E E E E E E   Q  Q  Q  E E
G|-------------2-5-|----------------|
D|---------1-3-----|----------------|
A|---0-1-3---------|----------2-1---|
E|-1---------------|-1--1--1--------|
B|-----------------|----------------|


  +S  S E E E E E E E   +S  S E E E E E E E
G|---------------------|---------------------|
D|---------------------|---------------------|
A|-(1)-----------8-----|---------------8-----|
E|---------------------|---------------------|
B|-----7-7-7-4-6---7-7-|-(7)-7-7-7-4-6---7-6-|


  +E. S E E E E E E   +S  S E E E E E E E
G|-------------------|----------------------|
D|-------------------|----------------------|
A|-------------8-----|----------------------|
E|-----------------7-|-(7)-7-7-6-6-4-4-3----|
B|-(6)-6-6-4-6---6---|-------------------7--|


  +S  S E E E E E E E   +S  S E E E E E E E   +E  E E E E E E E   Q  Q  Q  Q
G|---------------------|---------------------|-------------------|-------------|
D|---------------------|---------------------|-------------------|-------------|
A|---------------8-----|---------------8-----|-------------------|-8--8--8--8--|
E|---------------------|---------------------|-------4---5---8---|-------------|
B|-(7)-7-7-7-4-6---7-7-|-(7)-7-7-7-4-6---7-6-|-(6)-6---6---6---6-|-------------|


  +S  S E E S S +E  Q.     E E E E E  E E E
G|------------------------|------------------|
D|------------------------|------------------|
A|-(8)--------------------|---9---9---11---8-|
E|-----6-6-4-5-6-(6)------|------------------|
B|-------------------6----|-7---7---9----6---|


  +S  S E E S S +E  Q.     E E E E E  E E E
G|------------------------|------------------|
D|------------------------|------------------|
A|-(8)--------------------|---9---9---11---8-|
E|-----6-6-4-5-6-(6)------|------------------|
B|-------------------6----|-7---7---9----6---|


  E E E E E E E E   E E E E E E E E   W          E E E E E E E E
G|-----------------|-----------------|----------|------------------||
D|-----------------|-----------------|----------|-----------------o||
A|-----------------|-----------------|----------|------------------||
E|-6---6---5---5---|-4---4-----------|----------|---------------4-o||
B|-----------------|---------7---7---|-6--------|-6---6---6---6----||



************************************

| (n)  Ghost note
| o    reprise   

************************************
Suggest correction
Give kudos to tab author, rate the tab!
1 2 3 4 5
comments
print report bad tab
guest
You may want to rate the tab now too:
select rating
Wanna post a correction for this tab? Suggest correction