Oops, an error
Loading. Please wait.

Megaman 3 - Shadow Man Bass Tab

version 1
version 1

Whole song

Interactive

13 views 1 this week
no commentswrite comment
1 2 3 4 5
3 more votes to show rating
add to favorites
launch autoscroll
font size
0
reset
guitar tuner
Autoscroll
slow
fast
+/-
esc
set tempo
stop
Help us to improve Ultimate-Guitar.com Take our survey!
×
Author
Difficulty
intermediate
#----------------------------------PLEASE NOTE---------------------------------#
#This file is the author's own work and represents their interpretation of the #
#song. You may only use this file for private study, scholarship, or research. #
#------------------------------------------------------------------------------##

Megaman 3 (NES) - Shadowman

Gtr I (B E A D G) - 'Untitled'


Q=150
8/4
Gtr I

     W                Q  Q  Q  Q
G||------------------------------|
D||o-----------------------------|
A||-------------------2--2--2--2-|
E||o-----------------------------|
B||-------------------0--0--0--0-|

   Q  Q  H    +E  E E E +H       Q  Q  H    +E  E E E +H
G|-----------------------------|-----------------------------|
D|-----------------------------|-----------------------------|
A|-----------------------------|-----------------------------|
E|----5--7----(7)-8-7-5-(5)----|----5--7----(7)-8-7-5-(5)----|
B|-7---------------------------|-7---------------------------|

  Q  Q  H    +E  E E E +H       Q  Q  H    +E  E E E +H
G|-----------------------------|-----------------------------|
D|-----------------------------|-----------------------------|
A|-----------------------------|-----------------------------|
E|----5--7----(7)-8-7-5-(5)----|----5--7----(7)-8-7-5-(5)----|
B|-7---------------------------|-7---------------------------|

   Q  Q  H    +E  E E E +H       Q  Q  H    +E  E E E +H
G|-----------------------------|-----------------------------|
D|-----------------------------|-----------------------------|
A|-----------------------------|-----------------------------|
E|----5--7----(7)-8-7-5-(5)----|----5--7----(7)-8-7-5-(5)----|
B|-7---------------------------|-7---------------------------|

   E E E E +E  E Q  E E E E +E  E Q    E E E E +E  E Q  E E E E T S. E E E
G|-----------------------------------|--------------------------------------|
D|-----------------------------------|--------------------------4-5--4------|
A|-----------------------------------|----------------------7----------7----|
E|-----7---------7------7---------7--|-----7---------7--5-5---5----------5--|
B|-7-7---7-(7)-7----7-7---7-(7)-7----|-7-7---7-(7)-7------------------------|

   E E E E +E  E Q  E E E E +E  E Q    E E E E +E  E Q  E E E E T S. E E E
G|-----------------------------------|--------------------------------------|
D|-----------------------------------|--------------------------------------|
A|-----------------------------------|--------------------------------------|
E|-----7---------7------7---------7--|-----7---------7------5---8-9--7-5----|
B|-7-7---7-(7)-7----7-7---7-(7)-7----|-7-7---7-(7)-7----7-7---7----------7--|

   E E E E +E  E Q  E E E E +E  E Q    E E E E +E  E Q  E E E E T S. E E E
G|-----------------------------------|--------------------------------------|
D|-----------------------------------|--------------------------4-5--4------|
A|-----------------------------------|----------------------7----------7----|
E|-----7---------7------7---------7--|-----7---------7--5-5---5----------5--|
B|-7-7---7-(7)-7----7-7---7-(7)-7----|-7-7---7-(7)-7------------------------|

   E E E E +E  E Q  E E E E +E  E Q    E E E E +E  E Q  E E E E T S. E E E
G|-----------------------------------|--------------------------------------|
D|-----------------------------------|--------------------------------------|
A|-----------------------------------|--------------------------------------|
E|-----7---------7------7---------7--|-----7---------7------5---8-9--7-5----|
B|-7-7---7-(7)-7----7-7---7-(7)-7----|-7-7---7-(7)-7----7-7---7----------7--|

   W        W          E E S S  E  +E   E  E E E E S S  E  +E   E  E E
G|-------------------|-------------------------------------------------|
D|-------------------|-------------------------------------------------|
A|-------------------|-7-7---------------------7-7---------------------|
E|-7--------5--------|-----7-9-10-(10)-10-10-------7-9-10-(10)-10-10---|
B|-------------------|-------------------------------------------------|

   E E S S E +E  E E E E E S E. Q  Q
G|-------------------------------------|
D|-------------------------------------|
A|------------------------------5--5---|
E|-5-5---5-7-(7)-7-7---8-8-5-8---------|
B|-----7-------------------------------|

   E E S S  E  +E   E  E E E E S S  E  +E   E  E E
G|-------------------------------------------------|
D|-------------------------------------------------|
A|-7-7---------------------7-7---------------------|
E|-----7-9-10-(10)-10-10-------7-9-10-(10)-10-10---|
B|-------------------------------------------------|

   E E S S E +E  E E E E E S E. Q  Q
G|--------------------------------------||
D|-------------------------------------o||
A|------------------------------5--5----||
E|-5-5---5-7-(7)-7-7---8-8-5-8---------o||
B|-----7--------------------------------||


************************************

| (n)  Ghost note
| o    reprise 

************************************
Suggest correction
Give kudos to tab author, rate the tab!
1 2 3 4 5
comments
print report bad tab
guest
You may want to rate the tab now too:
select rating
Wanna post a correction for this tab? Suggest correction