Oops, an error
Loading. Please wait.

Megaman 3 - Shadow Man Tab

version 1
version 1

Whole song

Interactive

10 views 1 this week
no commentswrite comment
1 2 3 4 5
3 more votes to show rating
add to favorites
launch autoscroll
font size
0
reset
how to read this tab
guitar tuner
Autoscroll
slow
fast
+/-
esc
set tempo
stop
Help us to improve Ultimate-Guitar.com Take our survey!
×
Author
Difficulty
advanced
#----------------------------------PLEASE NOTE---------------------------------#
#This file is the author's own work and represents their interpretation of the #
#song. You may only use this file for private study, scholarship, or research. #
#------------------------------------------------------------------------------##

Megaman 3 (NES) - Shadowman

Gtr I (E A D G B E) - 'Electric Piano 1'
Gtr II (E A D G B E) - 'Sawtooth'
Gtr III (E A D G B E) - 'Strings'
Gtr IV (E A D G B E) - 'Electric Piano 2'


Q=150
8/4
Gtr I

     S S S S S  S S S E  E E. S Q  Q  Q  Q    W        W          W        W
e||------------------------7--8-9--9--9--9--|-------------------|---------------|
B||o------------------7-10------------------|-------------------|---------------|
G||----------7----6-7-----------------------|-------------------|---------------|
D||--7---7-9---10---------------------------|-------------------|---------------|
A||o---9------------------------------------|-------------------|---------------|
E||-----------------------------------------|-------------------|---------------|
 |
 |   Gtr II
 |   S S S S S  S S S E  E E. S Q  Q  Q  Q
e||-----------------------------------------|-------------------|---------------|
B||o----------------------------------------|-------------------|---------------|
G||------------------------4--5-6--6--6--6--|-------------------|---------------|
D||-------------------4--7------------------|-------------------|---------------|
A||o---------5----4-5-----------------------|-------------------|---------------|
E||--5-2-5-7----8---------------------------|-------------------|---------------|


   Q   Q   H        E  Q   E  +E   Q.     Q   Q   H        Q.     E  +H
e|--------------------------------------|-----------------------------------|
B|----19--19-------19-19--19-(19)-19----|----19--19-------17-----17-(17)----|
G|--------------------------------------|-----------------------------------|
D|--------------------------------------|-----------------------------------|
A|--------------------------------------|-----------------------------------|
E|--------------------------------------|-----------------------------------|
 |
 | Q   Q   E  Q.    E  Q   E  +E   Q.     Q   Q   E  Q.    Q   E  E  +H
e|----19--19-17----19-21--19-(19)-17----|----19--19-17----23-----17-(17)----|
B|--------------------------------------|-----------------------------------|
G|--------------------------------------|-----------------------------------|
D|--------------------------------------|-----------------------------------|
A|--------------------------------------|-----------------------------------|
E|--------------------------------------|-----------------------------------|


   Q   Q   H        E  Q   E  +E   Q.     Q   Q   H        Q.     E  +H
e|--------------------------------------|-----------------------------------|
B|----19--19-------19-19--19-(19)-19----|----19--19-------17-----17-(17)----|
G|--------------------------------------|-----------------------------------|
D|--------------------------------------|-----------------------------------|
A|--------------------------------------|-----------------------------------|
E|--------------------------------------|-----------------------------------|
 |
 | Q   Q   E  Q.    E  Q   E  +E   Q.     Q   Q   E  Q.    Q   E  E  +H
e|----19--19-17----19-21--19-(19)-17----|----19--19-17----23-----17-(17)----|
B|--------------------------------------|-----------------------------------|
G|--------------------------------------|-----------------------------------|
D|--------------------------------------|-----------------------------------|
A|--------------------------------------|-----------------------------------|
E|--------------------------------------|-----------------------------------|


   Gtr III
    W                  W                    H.                  Q    W
e|---------------------------------------|---------------------------------|
B|-16------------------------------------|-16------------------------------|
G|--------------------14-----------------|---------------------14----------|
D|---------------------------------------|--------------------------16-----|
A|---------------------------------------|---------------------------------|
E|---------------------------------------|---------------------------------|
 |
 |  E E E E +E  E E E  T  S. E E E +H       E  E E E +E   T S.  E E +W
e|---------------------------------------|---------------------------------|
B|---------------------------------------|------------------7--------------|
G|---------------------------------------|---------------10----10-9-(9)----|
D|--9-9-7-9-(9)-9-7-9-10-11--9-7---------|--9--9-7-9-(9)-------------------|
A|-------------------------------9-(9)---|---------------------------------|
E|---------------------------------------|---------------------------------|


    W                       W                H.               Q     W
e|----------------------------------------|-----------------------------------|
B|-16-------------------------------------|-----------------------------------|
G|-------------------------14-------------|-16---------------14---------------|
D|----------------------------------------|------------------------16---------|
A|----------------------------------------|-----------------------------------|
E|----------------------------------------|-----------------------------------|
 |
 |  E  E E  E  +E   E E  E  T E Q  E E Q     E  E  E E +E  T  S. E  E  +W
e|----------------------------8-9--8------|-----------------------------------|
B|-10-10-7-10-(10)-10-7-10-11--------7----|----------------9-10--9------------|
G|----------------------------------------|--9--9----9-(9)---------11-(11)----|
D|----------------------------------------|-------11--------------------------|
A|----------------------------------------|-----------------------------------|
E|----------------------------------------|-----------------------------------|


    W                                                W
e|-------------------------------------------------------------------------------------------------------|
B|-16----------------------------------------------------------------------------------------------------|
G|--------------------------------------------------14---------------------------------------------------|
D|-------------------------------------------------------------------------------------------------------|
A|-------------------------------------------------------------------------------------------------------|
E|-------------------------------------------------------------------------------------------------------|
 |
 |  E     E     E     E    +E      E     E     E     T  S.     E     E     E    +H
e|-------------------------------------------------------------------------------------------------------|
B|-------------------------------------------------------------------------------------------------------|
G|-------------------------------------------------------------------------------------------------------|
D|--9-----9-----7-----9----(9)-----9-----7-----9----10-11------9-----7-----------------------------------|
A|-------------------------------------------------------------------------9----(9)----------------------|
E|-------------------------------------------------------------------------------------------------------|
 |
 | Gtr I
 |  S  S  S  S  S  S  S  S  S   S  S  S  S  S  S  S  S      S  S  S  S  S  S  S  S   S  S  S  S  S  S  S
e|-------------21-----------------------21--------------------------21----------24--23-22-21-20----------|
B|-19----19-22----22-19----19-----19-22----22-19----19--------19-22----22-19--------------------24-23-22-|
G|----21----------------21-----21----------------21--------21----------------21--------------------------|
D|-------------------------------------------------------------------------------------------------------|
A|-------------------------------------------------------------------------------------------------------|
E|-------------------------------------------------------------------------------------------------------|


    H.                                       Q           W
e|----------------------------------------------------------------------------------------------------------|
B|-16-------------------------------------------------------------------------------------------------------|
G|------------------------------------------14--------------------------------------------------------------|
D|------------------------------------------------------16--------------------------------------------------|
A|----------------------------------------------------------------------------------------------------------|
E|----------------------------------------------------------------------------------------------------------|
 |
 |  E      E     E     E    +E      T S.     E     E    +W
e|----------------------------------------------------------------------------------------------------------|
B|------------------------------------7---------------------------------------------------------------------|
G|---------------------------------10-------10-----9----(9)-------------------------------------------------|
D|--9------9-----7-----9----(9)-----------------------------------------------------------------------------|
A|----------------------------------------------------------------------------------------------------------|
E|----------------------------------------------------------------------------------------------------------|
 |
 |  S   S  S  S  S  S  S  S  S   S  S     S  S  S  S  S  S   S  S  S  S  S  S  S  S  S  S  S  S  S  S  S
e|--------------21--------------------------21-----------------------21----------24-23-22-21-20-------------|
B|-19-----19-22----22-19----19-----19----22----22-19----19-----19-22----22-19-------------------24-23-22----|
G|-----21----------------21-----21-------------------21-----21----------------21----------------------------|
D|----------------------------------------------------------------------------------------------------------|
A|----------------------------------------------------------------------------------------------------------|
E|----------------------------------------------------------------------------------------------------------|


    W                                                W
e|-------------------------------------------------------------------------------------------------------|
B|-16----------------------------------------------------------------------------------------------------|
G|--------------------------------------------------14---------------------------------------------------|
D|-------------------------------------------------------------------------------------------------------|
A|-------------------------------------------------------------------------------------------------------|
E|-------------------------------------------------------------------------------------------------------|
 |
 |  E     E     E     E    +E      E     E     E     T  S.     E     E     E    +H
e|-------------------------------------------------------------------------------------------------------|
B|-------------------------------------------------------------------------------------------------------|
G|-------------------------------------------------------------------------------------------------------|
D|--9-----9-----7-----9----(9)-----9-----7-----9----10-11------9-----7-----------------------------------|
A|-------------------------------------------------------------------------9----(9)----------------------|
E|-------------------------------------------------------------------------------------------------------|
 |
 |  S  S  S  S  S  S  S  S  S   S  S  S  S  S  S  S  S      S  S  S  S  S  S  S  S   S  S  S  S  S  S  S
e|-------------21-----------------------21--------------------------21----------24--23-22-21-20----------|
B|-19----19-22----22-19----19-----19-22----22-19----19--------19-22----22-19--------------------24-23-22-|
G|----21----------------21-----21----------------21--------21----------------21--------------------------|
D|-------------------------------------------------------------------------------------------------------|
A|-------------------------------------------------------------------------------------------------------|
E|-------------------------------------------------------------------------------------------------------|


    H.                                       Q           W
e|----------------------------------------------------------------------------------------------------------|
B|----------------------------------------------------------------------------------------------------------|
G|-16---------------------------------------14--------------------------------------------------------------|
D|------------------------------------------------------16--------------------------------------------------|
A|----------------------------------------------------------------------------------------------------------|
E|----------------------------------------------------------------------------------------------------------|
 |
 |  E      E     E     E    +E      T S.     E     E    +W
e|----------------------------------------------------------------------------------------------------------|
B|------------------------------------7---------------------------------------------------------------------|
G|---------------------------------10-------10-----9----(9)-------------------------------------------------|
D|--9------9-----7-----9----(9)-----------------------------------------------------------------------------|
A|----------------------------------------------------------------------------------------------------------|
E|----------------------------------------------------------------------------------------------------------|
 |
 |  S   S  S  S  S  S  S  S  S   S  S     S  S  S  S  S  S   S  S  S  S  S  S  S  S  S  S  S  S  S  S  S
e|--------------21--------------------------21-----------------------21----------24-23-22-21-20-------------|
B|-19-----19-22----22-19----19-----19----22----22-19----19-----19-22----22-19-------------------24-23-22----|
G|-----21----------------21-----21-------------------21-----21----------------21----------------------------|
D|----------------------------------------------------------------------------------------------------------|
A|----------------------------------------------------------------------------------------------------------|
E|----------------------------------------------------------------------------------------------------------|


    W                                               W
e|-----------------------------------------------------------------------------------------------------|
B|-----------------------------------------------------------------------------------------------------|
G|-----------------------------------------------------------------------------------------------------|
D|-----------------------------------------------------------------------------------------------------|
A|-----------------------------------------------------------------------------------------------------|
E|-----------------------------------------------------------------------------------------------------|
 |
 |  S  S  E     E     S  S  E     E     S  S  E     E     E     E     E    +H
e|--------------------------------------------------------------7-----9----(9)-------------------------|
B|--------------------------------------------------7----10--------------------------------------------|
G|--------------------------------6-----9--6--9--------------------------------------------------------|
D|--------------7-----9--7--9--------------------------------------------------------------------------|
A|--9--7--9--------------------------------------------------------------------------------------------|
E|-----------------------------------------------------------------------------------------------------|
 |
 |  S  S  S  S  S  S  S  S  S  S  S  S  S  S  S  S  S  S  S  S  S  S  S  S  S   S  S  S  S  S  S  S
e|--------------------------------------------------------------------------------------19-17-16-------|
B|-19----17-19----17-19----17-19----17-19----17-19----17-19----17-19----17-19-----17-19----------19----|
G|----18-------18-------18-------18-------18-------18-------18-------18--------18----------------------|
D|-----------------------------------------------------------------------------------------------------|
A|-----------------------------------------------------------------------------------------------------|
E|-----------------------------------------------------------------------------------------------------|


   Gtr IV
   S S E  E  E  T  S. E E.  S  +E   E  E E T  S. E E. S
e|-----------9--------------9--(9)----------------------|
B|-9---9-10----11-12--9------------12-10-9-9-----9------|
G|-------------------------------------------11-------9-|
D|---9--------------------------------------------------|
A|------------------------------------------------------|
E|------------------------------------------------------|
 |
 | S S E  E  E  T  S. E E.  S  +E   E  E E T  S. E E. S
e|------------------------------------------------------|
B|----------10--8--9-------10-(10)--9-------------------|
G|-9---9-11-----------9---------------11-9-9--8--9----9-|
D|---9--------------------------------------------------|
A|------------------------------------------------------|
E|------------------------------------------------------|


    Q   Q  Q   E.  S  +S   E.  E  E  Q   Q
e|-------------------------------------------|
B|-12--10--9---------------------------------|
G|------------11--11-(11)--9---9-----9--11---|
D|-------------------------------10----------|
A|-------------------------------------------|
E|-------------------------------------------|
 |
 |  Q   Q  Q   E.  S  +S   E.  E  E  Q   Q
e|-------------------------------------------|
B|--9----------------------------------------|
G|-----11--9---8-----------------------------|
D|------------------------10--10-10-10--12---|
A|----------------12-(12)--------------------|
E|-------------------------------------------|


   S S E  E  E  T  S. E E.  S  +E   E  E E T  S. E E. S
e|-----------9--------------9--(9)----------------------|
B|-9---9-10----11-12--9------------12-10-9-9-----9------|
G|-------------------------------------------11-------9-|
D|---9--------------------------------------------------|
A|------------------------------------------------------|
E|------------------------------------------------------|
 |
 | S S E  E  E  T  S. E E.  S  +E   E  E E T  S. E E. S
e|------------------------------------------------------|
B|----------10--8--9-------10-(10)--9-------------------|
G|-9---9-11-----------9---------------11-9-9--8--9----9-|
D|---9--------------------------------------------------|
A|------------------------------------------------------|
E|------------------------------------------------------|


    Q   Q  Q   E.  S  +S   E.  E  E  Q   Q
e|--------------------------------------------||
B|-12--10--9---------------------------------o||
G|------------11--11-(11)--9---9-----9--11----||
D|-------------------------------10-----------||
A|-------------------------------------------o||
E|--------------------------------------------||
 |
 |  Q   Q  Q   E.  S  +S   E.  E  E  Q   Q
e|--------------------------------------------||
B|--9----------------------------------------o||
G|-----11--9---8------------------------------||
D|------------------------10--10-10-10--12----||
A|----------------12-(12)--------------------o||
E|--------------------------------------------||



************************************

| (n)  Ghost note
| o    reprise 

************************************
Suggest correction
Give kudos to tab author, rate the tab!
1 2 3 4 5
comments
print report bad tab
guest
You may want to rate the tab now too:
select rating
Wanna post a correction for this tab? Suggest correction